Chevelle - Grab Thy Hand Chords & Tabs

 

Grab Thy Hand Chords & Tabs

Chevelle Chords & Tabs

Version: 1 Type: Bass Tab 0 ratings
1 star 2 stars 3 stars 4 stars 5 stars
comments

Grab Thy Hand Bass Tab

   
Band- Chevelle
Song- Grab Thy Hand

Tuning -
	B F# B E

* - Let Ring
h - hammer on
p - pull off
x - mute string
~ - bend

Intro
    0:07

E:  -----------------------------|
B:  -----------------------------|
F#: -----------------------------|
B:   --0-0* ---------------------|

E:  ------------------------------------|
B:  ------------------------------------|
F#: ------------------------------------|
B:   --0-0 ---0-0---0-0---0-0-----------|

    0:14
E:  --------------------------------------------------|
B:  --------------------------------------------------|
F#: --------------------------------------------------|      x7
B:   --0-0 ---0-0---0-0---0-0---x-x--0h1--1p0---------|

E:  ---------------------------------------------------|
B:  ---------------------------------------------------|
F#: ---------------------------------------0h1/--------|
B:   --0-0 ---0-0---0-0---0-0---x-x--------------------|

    0:40

E:  ------------------------------------------|
B:  ---8~-------------------------------------|
F#: ---------5~-------------------------------|      x3
B:   ----------------0-----0-0--0--0h1-0------|


E:  -----------------------|
B:  ---8~------------------|
F#: ---------5~------------|
B:   ----------------0-----|

     0:54

E:  ------------------------------------------|
B:  ---8~ ------------------------------------|
F#: ---------5~ ------------------------------|       x4
B:   ----------------0-----0-0--0--0h1-0------|

E:  --------------------------------------------------|
B:  ---8~ --------------------------------------------|
F#: ---------5~ ---0---0h1 0--0-0--0--0h1-1p0---------|       x4
B:   -------------------------------------------------|

E:  ------------------------------------|
B:  ------------------------------------|
F#: ------------------------------------|       x4
B:   --0-0 ---0-0---0-0---0-0-----------|

    1:33

E:  ------------------------------------|
B:  ------------------------------------|
F#: -----------1----------3-------------|     x3
B:   --0-0 -x-----0-0-x-----0-0-1p0-----|

Rest
[ Tab from: http://www.guitartabs.cc/tabs/c/chevelle/grab_thy_hand_btab.html ]
E:  ------------------------------------|
B:  ------------------------------------|
F#: ------------------------------------|      x2
B:   ---3---3-3---3---3-3--3-3-3--------|

E:  --------------------------------------------------|
B:  --------------------------------------------------|
F#: --------------------------------------------------|      x2
B:   --0-0 ---0-0---0-0---0-0---x-x--0h1--1p0---------|

E:  ------------------------------------|
B:  ------------------------------------|
F#: ------------------------------------|      x2
B:   ---3---3-3---3---3-3--3-3-3--------|


Rest

2:14

E:  -----------------------------|
B:  -----------------------------|
F#: -----------------------------|
B:   --0-0* ---------------------|

E:  ------------------------------------|
B:  ------------------------------------|
F#: ------------------------------------|
B:   --0-0 ---0-0---0-0---0-0-----------|

E:  --------------------------------------------------|
B:  --------------------------------------------------|
F#: --------------------------------------------------|      x7
B:   --0-0 ---0-0---0-0---0-0---x-x--0h1--1p0---------|

E:  -----------------------------------------------|
B:  -----------------------------------------------|
F#: -----------------------------------0h1/--------|
B:   --0-0 ---0-0---0-0---0-0---x-x----------------|

E:  ------------------------------------------|
B:  ---8~ ------------------------------------|
F#: ---------5~ ------------------------------|       x4
B:   ----------------0-----0-0--0--0h1-0------|

E:  -----------------------|
B:  ---8~------------------|
F#: ---------5~------------|
B:   ----------------0-0---|

    3:05

E:  -----------------------------|
B:  -----------------------------|
F#: -----------------------------|
B:   --0-0-----------------------|

E:  -----------------------------------------------------------------|
B:  ----------------------------------------------------------0h1----|
F#: -----------1----------3-----------------1----------3-------------|   x7
B:   --0-0 -x-----0-0-x-----0-0-1p0--0-0 -x-----0-0-x-----0-0--------|

E:  -----------------------------------------------------------------|
B:  -----------------------------------------------------------------|
F#: -----------1----------3------------------1----------3*-----------|
B:   --0-0 -x-----0-0-x-----0-0-1p0--0-0 -x-----0-0-x----------------|
Comments