Chevelle - Forfeit Chords & Tabs

 

Forfeit Chords & Tabs

Chevelle Chords & Tabs

Version: 3 Type: Tab 0 ratings
1 star 2 stars 3 stars 4 stars 5 stars
comments

Forfeit Tab

E------------------------------------------------------------------
B------------------------------------------------------------------
G------------------------------------------------------------------
D------------------------------------------------------------------
A----9-9-x-x-x-x-x-9-9-9-9-x-x-x-x-x-9-9-9-9-x-x-x-x-x-9-9-9-9-9-9-
E----7-7-x-x-x-x-x-7-7-7-7-x-x-x-x-x-7-7-7-7-x-x-x-x-x-7-7-7-7-7-7-
[ Tab from: http://www.guitartabs.cc/tabs/c/chevelle/forfeit_tab_ver_3.html ]
E--------------------------------------------------------------
B--------------------------------------------------------------
G--------------------------------------------------------------
D--------------------------------------------------------------
A----7-7-7-7-5-5-x-x-x-x-x-5-5-5-5-x-x-x-x-x-5-5-5-5-x-x-x-x-x-
E----5-5-5-5-3-3-x-x-x-x-x-3-3-3-3-x-x-x-x-x-3-3-3-3-x-x-x-x-x-

E-----------------------
B-----------------------
G-----------------------   X 4
D-----------------------
A----5-5-5-5-5-5-4-4-4-4
E----3-3-3-3-3-3-2-2-2-2
Comments