Chevelle - Family System Chords & Tabs

 

Family System Chords & Tabs

Chevelle Chords & Tabs

Version: 3 Type: Tab 0 ratings
1 star 2 stars 3 stars 4 stars 5 stars
comments

Family System Tab

intro
  V ^ V  ^ V ^  V ^ V  ^ V ^  V ^ V  ^ V ^  V ^ V  ^ V ^ V  repeat twice
|------------------------------------------------------0-0---|
|-0-0-0--0-0-0--0-0-0--0-0-0--0-0-0--0-0-0--0-0-0--1-1-------|
|------------------------------------------------------------|
|------------------------------------------------------------|
|------------------------------------------------------------|
|------------------------------------------------------------|


|------------------------------------------0-------------------------------------------0|
|-0-0-0-0--0-1--0-0-0-0--0-1--0-0-0-0--1-1----0-0-0-0--0-1--0-0-0-0--0-1--0-0-0-0--1-1--|
|---------------------------------------------------------------------------------------|
|---------------------------------------------------------------------------------------|
|---------------------------------------------------------------------------------------|
|---------------------------------------------------------------------------------------|

intro 2  heavy dist.
     PM---------------------|                            PM------------------------------|
|----------------------------------------------------------------------------------------|
|----------------------------------------------------------------------------------------|
|----------------------------------------------------------------------------------------|
|-0-0--0-7-3-0-5-3-0-3-5-------0-0----------------0---0-0--0-7-3-0-5-3-0-3-5-------0-0---|
|-0-0--0-7-3-0-5-3-0-3-5--0-0--0-0----------------0---0-0--0-7-3-0-5-3-0-3-5--0-0--0-0---|
|-0-0--0-7-3-0-5-3-0-3-5--0-0--0-0--7-3-0-5-3-0-5-0---0-0--0-7-3-0-5-3-0-3-5--0-0--0-0---|


|----------|
|----------|
|----------|
|----------|
|----------|
|-7-3-0-5--|

chorus   heavy dist.  Riff A.------------------------------------------------------------|
|----------------------------------------------------------------------------------------|
|----------------------------------------------------------------------------------------|
|----------------------------------------------------------------------------------------|
|-7-3-0-7-3-0-5-3-0-3-5-0--7-3-0-7-3-0-5-3-0-3-5-0--7-3-0-7-3-0-5-3-0-5-5-0--7-3-0-7-3-0-|
|-7-3-0-7-3-0-5-3-0-3-5-0--7-3-0-7-3-0-5-3-0-3-5-0--7-3-0-7-3-0-5-3-0-3-5-0--7-3-0-7-3-0-|
|-7-3-0-7-3-0-5-3-0-3-5-0--7-3-0-7-3-0-5-3-0-3-5-0--7-3-0-7-3-0-5-3-0-3-5-0--7-3-0-7-3-0-|


|---x-x-x-x-x--------------------------------------------------------------------------|
|---x-x-x-x-x--------------------------------------------------------------------------|
|---x-x-x-x-x--------------------------------------------------------------------------|
|-5-----------7-3-0-7-3-0-5-3-0-3-5-0--7-3-0-7-3-0-5-3-0-3-5-0--7-3-0-7-3-0-5-3-0-3-5--|
|-5-----------7-3-0-7-3-0-5-3-0-3-5-0--7-3-0-7-3-0-5-3-0-3-5-0--7-3-0-7-3-0-5-3-0-3-5--|
|-5-----------7-3-0-7-3-0-5-3-0-3-5-0--7-3-0-7-3-0-5-3-0-3-5-0--7-3-0-7-3-0-5-3-0-3-5--|
[ Tab from: http://www.guitartabs.cc/tabs/c/chevelle/family_system_tab_ver_3.html ]
                          verse1                            sl.
|----------------------------------------x-x-x-x-x--------------------------------------|
|----------------------------------------x-x-x-x-x--------------------------------------|
|----------------------------------------x-x-x-x-x--------------------------------------|
|-0--7-3-0-7-3-0-5-3-0-3-5-0--3--3--3-3--x-x-x-x-x--3--3--3--35--5-5-5-5--0--0--0-0-----|
|-0--7-3-0-7-3-0-5-3-0-3-5-0--3--3--3-3--x-x-x-x-x--3--3--3--35--5-5-5-5--0--0--0-0-----|
|-0--7-3-0-7-3-0-5-3-0-3-5-0--3--3--3-3--x-x-x-x-x--3--3--3--35--5-5-5-5--0--0--0-0-----|

                                                                                PM----
                                                                       pre-chorus|
|-x-x-x-x-x------------------------------------x-x-x-x-x---------------------------------|
|-x-x-x-x-x------------------------------------x-x-x-x-x---------------------------------|
|-x-x-x-x-x------------------------------------x-x-x-x-x---------------------------------|
|-x-x-x-x-x--0--0--0--05--5-5-5-0--3--3--3-3--x-x-x-x-x--3--3--3--35--5-5-5-5--7-3-0-----|
|-x-x-x-x-x--0--0--0--05--5-5-5-0--3--3--3-3--x-x-x-x-x--3--3--3--35--5-5-5-5--7-3-0-----|
|-x-x-x-x-x--0--0--0--05--5-5-5-0--3--3--3-3--x-x-x-x-x--3--3--3--35--5-5-5-5--7-3-0-----|


|------------------------------------------------------------------------------------|
|------------------------------------------------------------------------------------|
|------------------------------------------------------------------------------------|
|-7-3-0--------------7-3-0-7-3-0--------------7-3-0-7-3-0--------------7-3-0-7-3-0-5-|
|-7-3-0--------------7-3-0-7-3-0-x-x-x-x-x-x--7-3-0-7-3-0-x-x-x-x-x-x--7-3-0-7-3-0-5-|
|-7-3-0-5-3-0-3-5-0--7-3-0-7-3-0-5-3-0-3-5-0--7-3-0-7-3-0-x-x-x-x-x-x--7-3-0-7-3-0-5-|

repeat Riff A. 4 times.
repeat verse1 and instead of 5 mutes, there's four, but the rest of the verse is the same.
instead of playing pre-chorus after verse2 drop to the bridge.

bridge  heavy dist.            PM---|                                PM-------------------|
|-----------------------------------------------------------------------------------------|
|---0---0---0--------0---0---0-----------0---0---0---------0---0---0-----------0---0---0--|
|-5---4---4--------5---4---4-----------5---4---4---------5---4---4-----------5---4---4----|
|--------------0----------------0-0-0---------------0-----------------0-0-0---------------|
|--------------0----------------0-0-0---------------0-----------------0-0-0---------------|
|--------------0----------------0-0-0---------------0-----------------0-0-0---------------|


  |-let open B ring throughout
|-----------------------------------------------------------------|
|------0---0---0-----------0---0---0-------0---0---0----0---0---0-|
|----5---4---4-----------5---4---4-------5---4---4----5---4---4---|
|-----------------------------------------------------------------|
|-----------------------------------------------------------------|
|-0---------------0-0-0---------------0---------------------------|
Comments