Chevelle - Comfortable Liar Chords & Tabs

 

Comfortable Liar Chords & Tabs

Chevelle Chords & Tabs

Version: 4 Type: Tab 0 ratings
1 star 2 stars 3 stars 4 stars 5 stars
comments

Comfortable Liar Tab

   
Band-Chevelle
song-Comfortable Liar
Album- Wonder Whats Next


Tuning- Down 1 1/2 steps (C# F# B E G# C#)


This tab is pretty close to 100% correct.  Enjoy!


(Intro/chorus)


-------------------------------------------------|
-------------------------------------------------|
-------------------------------------------------|
--6--6-2--6---6-2---------6--6-2--6---6-----2----|
--6--6-2--6---6-2--2------6--6-2--6---6-----2----|
--4--4-0--4---4-0----0----4--4-0--4---4--0--0----|


-------------------------------------------------|
-------------------------------------------------|
-------------------------------------------------|
--6--6-2--6---6-2---------6--6-2--6--------------|
--6--6-2--6---6-2--2------6--6-2--6--------------|
--4--4-0--4---4-0----0----4--4-0--4---0--0--0----|


(Verse)
[ Tab from: http://www.guitartabs.cc/tabs/c/chevelle/comfortable_liar_tab_ver_4.html ]
-------------------------------------------------|
-------------------------------------------------|
-------------------------------------------------|
--6--6--2--6-6-6-6-2-----------------------------|
--6--6--2--6-6-6-6-2-----------------------------|
--4--4--0--4-4-4-4-0--0--0-----------------------|

repeat as many times as necessary


 so  heal..................................


------------------------------------------|
------------------------------------------|
------------------------------------------|
-2----2----2----2----2----2----2----2-----|
-2----2----2----2----2----2----2----2-----|
-0-xx-0-xx-0-xx-0-xx-0-xx-0-xx-0-xx-0-xx--|


 your  fear................................


-------------------------------------------|
-------------------------------------------|
-------------------------------------------|
-6----6----6----6----6----6----6----6------|
-6----6----6----6----6----6----6----6------|
-4-xx-4-xx-4-xx-4-xx-4-xx-4-xx-4-xx-4-xx---|

 your such a comfortable liar

----------------------------------|
----------------------------------|
----------------------------------|
---6-------------------2----------|
---6-------------------2----------|
---4-------------------0----------|
Comments