Chevelle - Comfortable Liar Chords & Tabs

 

Comfortable Liar Chords & Tabs

Chevelle Chords & Tabs

Version: 1 Type: Tab 0 ratings
1 star 2 stars 3 stars 4 stars 5 stars
comments

Comfortable Liar Tab

   
#----------------------------------PLEASE NOTE---------------------------------#
#This file is the author's own work and represents their interpretation of the #
#song. You may only use this file for private study, scholarship, or research. #
#------------------------------------------------------------------------------##

Artist - Chevelle
Song - Comfortable Liar
Album - Wonder What's Next
Author of tab - Brian Roman
[ Tab from: http://www.guitartabs.cc/tabs/c/chevelle/comfortable_liar_tab.html ]
Tuning - B F# B E G# C# 
  
                           PM                             PM--|                          PM
|----------------------------------------------------------------------------------------------|
|----------------------------------------------------------------------------------------------|
|----9---------------9--------9-----9---------------9---------------9---------------9--------9-|
|-6--9--6--2-2-2--6--9--6--2--9--6--9--6--2-2-2--6--9--6--2-2-2--6--9--6--2-2-2--6--9--6--2--9-|
|-6--7--6--2-2-2--6--7--6--2--7--6--7--6--2-2-2--6--7--6--2-2-2--6--7--6--2-2-2--6--7--6--2--7-|
|-6-----6--2-2-2--6-----6--2-----6-----6--2-2-2--6-----6--2-2-2--6-----6--2-2-2--6-----6--2----|


                          PM
|----------------------------------|
|----------------------------------|
|----9---------------9--------9----|Intro/Verse (somewhat)
|-6--9--6--2-2-2--6--9--6--2--9----|
|-6--7--6--2-2-2--6--7--6--2--7----|
|-6-----6--2-2-2--6-----6--2-------|


   hold       PM  - -   PM  - -
|-------------|---------|------------|
|-------------|---------|------------|
|-------------|---------|------------|This is the chorus (somewhat)
|-2-------6---|-2-2-2-2-|-6-6-6-6----|
|-2-------6---|-2-2-2-2-|-6-6-6-6----|Play last 2 measures on second chorus, before bridge
|-2-------6---|-2-2-2-2-|-6-6-6-6----|


|------------------------------|
|------------------------------|
|------------------------------|
|-2-----------------------6----|Play during bridge; hold long time
|-2-----------------------6----|
|-2-----------------------6----|



***************************************************************************************
* Generated using Power Tab Editor by Brad Larsen - http://powertab.guitarnetwork.org *
***************************************************************************************
Comments