Chevelle - Closure Chords & Tabs

 

Closure Chords & Tabs

Chevelle Chords & Tabs

Version: 5 Type: Tab 0 ratings
1 star 2 stars 3 stars 4 stars 5 stars
comments

Closure Tab

   
My first tab.Hope you like.

Verse/intro

e|--------------------------------------
B|--------------------------------------
G|-4---------7---------6---------7-6-7-6
D|-x---------x---------x---------x-x-x-x
A|-2---------5---------4---------5-4-5-4
e|-0-0-0-0-0-0-0-0-0-0-0-0-0-0-0-0-0-0-0  <<<<<  6xs

Bass part enters at the end of "colse noff rescue the breather".
maybe ill tab that out later

Bridge

well...this is pretty close to the brigde.Strokes youll have to play along with

e|--------------                  
B|--------------
G|-3-3-5-x-x----
D|-3-3-5-x-x----
A|-3-3-5-x-x----
e|-3-3-5-x-x----<<<<2xs
[ Tab from: http://www.guitartabs.cc/tabs/c/chevelle/closure_tab_ver_5.html ]
e|--------------
B|--------------
G|-7-7-5-x-x----
D|-7-7-5-x-x----
A|-7-7-5-x-x----
e|-7-7-5-x-x----<<<<2xs

Chorus

e|-----
B|-----
G|---7-
D|---x-
A|---5-
e|---0-  repeat as needed. many people think that there are more chords than this
one. But if you listen carefully you can here that only the bass line changes and
makes it sound like the chords have when they havent. Chevelle does this in alot
of their songs

second bridge

e|--------------
B|--------------
G|-5-5-7-x-x----
D|-5-5-7-x-x----
A|-5-5-7-x-x----
e|-5-5-7-x-x----<<<<2xs

e|--------------
B|--------------
G|-9-9-7-x-x----
D|-9-9-7-x-x----
A|-9-9-7-x-x----
e|-9-9-7-x-x----<<<<2xs

umm...yea as nice as the rest of the song sounds its pretty easy and
youll be able to figure it out in no time.
Comments