Chevelle - Closure Chords & Tabs

 

Closure Chords & Tabs

Chevelle Chords & Tabs

Version: 3 Type: Tab 0 ratings
1 star 2 stars 3 stars 4 stars 5 stars
comments

Closure Tab

closure
by Chevelle
tuning-
dropped d down one half step.
|---------------------------------------|
|---------------------------------------|
|-7---------10-9---------10-9/10--------|
|-x---------x--x---------x--x---0-------|
|-5-x-x-x-x-8--7-x-x-x-x-8--7/8-0-------|
|-0-0-0-0-0-0----0-0-0-0-0------0-------|
pre chorus
|---------------------------------------|
|---------------------------------------|
|---------------------------------------|
|-0-0-3-5-3-0-0-3-0-3--etc.-------------|
|-0-0-3-5-3-0-0-3-0-3-------------------|
|-0-0-3-5-3-0-0-3-0-3-------------------|
chorus
|---------------------------------------|
|-6-6-6-6-6-6---------------------------|
|-5-5-5-5-5-5---------------------------|
|-3-3-3-3-3-3-etc.----------------------|
|---------------------------------------|
|---------------------------------------|
verse 3
|---------------------------------------|
|---------------------------------------|
|-7--------10---------9--------109/10---|
|-x---------x---------x--------x-x------|
|-5---------8---------7--------8-7/8-0--|
|---0-0-0-0---0-0-0-0--0-0-0-0-------0--|
pm  . . . .   . . . .  . . . .

that's all.
[ Tab from: http://www.guitartabs.cc/tabs/c/chevelle/closure_tab_ver_3.html ]
Comments