Chevelle - Closure Chords & Tabs

 

Closure Chords & Tabs

Chevelle Chords & Tabs

Version: 2 Type: Bass Tab 0 ratings
1 star 2 stars 3 stars 4 stars 5 stars
comments

Closure Bass Tab

Artist: Chevelle
Song: Closure
Album: Wonder Whats Next?
Tuning: Standard (EADG)

Intro/Verse
G-----------------------------|
D-----------------------------|
A---22222222222222222222222---|
E-----------------------------|

Pre-chorus
G---------------------------------------------|
D---------------------------------------------|
A---5-5-7-5---5-5-7-5---7-7-9-7---7-7-9-7-----|
E-----------7---------7---------7---------7---|
[ Tab from: http://www.guitartabs.cc/tabs/c/chevelle/closure_btab_ver_2.html ]
Chorus
G-------------------------------------------------------------|
D-------------------------------------------------------------|
A---222222222222222222222--5-4--------------------------------|
E------------------------------2-33333333333333333333333333---|

Post-Chorus
G-----------|
D----0--0---|
A---2--2----|
E-----------|

Heavy Metal Part/Ending
G-------------------|-----------------------------|
D-------------------|-----------------------------|
A---555555-222222---|---555-444-----55555--2222---|
E-------------------|----------22222--------------|

End on A---2222---|

This tab 100% correct. You will hafta figure out the order.
Thanks and please RATE!!!!!!!
Comments