Chevelle - Bend The Bracket Chords & Tabs

 

Bend The Bracket Chords & Tabs

Chevelle Chords & Tabs

Version: 4 Type: Tab 0 ratings
1 star 2 stars 3 stars 4 stars 5 stars
comments

Bend The Bracket Tab

   
BEND THE BRACKET          Tune down half a step (Eb Ab Db Bb Gb Eb)
     CHEVELLE
     Acoustic Guitar

                                                   (Don't play this part the second time)
                                                                 |  
   Intro                                                      |------|
Eb |---------------------------------|---------------------------------|
Gb |---------------------------------|---------------------------------|
Bb |-9-9-9-9-9---9-9---9-9---9-9-9---|---------------------------------|	
Db |-9-9-9-9-9---9-9---9-9---9-9-9---|-------9-7---------9-7-----9-7---| x2
Ab |-7-7-7-7-7---7-7---7-7---7-7-7---|---------------------------------|
Eb |---------------------------------|-8-7-8-------8-7-8-------8-------|


   Verse
Eb |----------------------------------|---------------------------------|
Gb |----------------------------------|---------------------------------|
Bb |-9-9-9-9-9---9-9---9-9---/-12-----|-5-5-5-5-5---5-5---5-5---5-5-5---|
Db |-9-9-9-9-9---9-9---9-9---/-12-----|-5-5-5-5-5---5-5---5-5---5-5-5---| x4
Ab |-7-7-7-7-7---7-7---7-7---/-10-----|-3-3-3-3-3---3-3---3-3---3-3-3---|
Eb |----------------------------------|---------------------------------|


   Chorus (Second time strum last chord once, hold, and let ring out)
Eb |---------------------------------------------|---------------------------------|
Gb |---------------------------------------------|---------------------------------|
Bb |-10-10-10-10-10---10-10---10-10---10-10-10---|-7-7-7-7-7---7-7---7-7---7-7-7---|
Db |-10-10-10-10-10---10-10---10-10---10-10-10---|-7-7-7-7-7---7-7---7-7---7-7-7---|
Ab |-8--8--8--8--8----8--8----8--8----8--8--8----|-5-5-5-5-5---5-5---5-5---5-5-5---|
Eb |---------------------------------------------|---------------------------------|
[ Tab from: http://www.guitartabs.cc/tabs/c/chevelle/bend_the_bracket_tab_ver_4.html ]
Eb |---------------------------------|---------------------------------|
Gb |---------------------------------|---------------------------------|
Bb |-5-5-5-5-5---5-5---5-5---5-5-5---|-7-7-7-7-7---7-7---7-7---7-7-7---|	
Db |-5-5-5-5-5---5-5---5-5---5-5-5---|-7-7-7-7-7---7-7---7-7---7-7-7---| x2
Ab |-3-3-3-3-3---3-3---3-3---3-3-3---|-5-5-5-5-5---5-5---5-5---5-5-5---|
Eb |---------------------------------|---------------------------------|


   Bridge
Eb |---------------------------------|---------------------------------|
Gb |---------------------------------|---------------------------------|
Bb |-9-9-9-9-9---9-9---9-9---9-9-9---|---------------------------------|	
Db |-9-9-9-9-9---9-9---9-9---9-9-9---|-------9-7---------9-7-----9-7---| 
Ab |-7-7-7-7-7---7-7---7-7---7-7-7---|---------------------------------|
Eb |---------------------------------|-8-7-8-------8-7-8-------8-------|

Eb |---------------------------------|-------------------------------------|
Gb |---------------------------------|-------------------------------------|
Bb |-7-7-7-7-7---7-7---7-7---7-7-7---|-5-5-5-5-5-5---(5)-4-----(4)---------|	
Db |-7-7-7-7-7---7-7---7-7---7-7-7---|-5-5-5-5-5-5---(5)-4-----(4)-4-------| x4
Ab |-5-5-5-5-5---5-5---5-5---5-5-5---|-3-3-3-3-3-3---(3)-2-----(2)-4-------|
Eb |---------------------------------|-----------------------------2-------|


   Outro                                                     
Eb |---------------------------------|---------------------------------|
Gb |---------------------------------|---------------------------------|
Bb |-9-9-9-9-9---9-9---9-9---9-9-9---|---------------------------------| (Repeat over	
Db |-9-9-9-9-9---9-9---9-9---9-9-9---|-------9-7---------9-7-----9-7---|  and over)
Ab |-7-7-7-7-7---7-7---7-7---7-7-7---|---------------------------------|
Eb |---------------------------------|-8-7-8-------8-7-8-------8-------|
Comments