Chevelle - Bend The Bracket Chords & Tabs

 

Bend The Bracket Chords & Tabs

Chevelle Chords & Tabs

Version: 2 Type: Tab 0 ratings
1 star 2 stars 3 stars 4 stars 5 stars
comments

Bend The Bracket Tab

   
Tabbed by- Schmidty11985

Band- Chevelle
Song- Bend the Bracket
Album- This type of thinking could do us in


Tuning-  Down 1 1/2 steps (C# F# B E G# C#)


* Strum

This is one of the best songs off of Chevelle's new album "This type of thinking could 
us in"


  (Intro)

  --------------------------------------------|
  ------------0----------0--------------------|
  --4*----4-----0----4-----0----4--0----------|
  --4---4---4------4---4------4---------------|
  --2-----------------------------------------|
  --------------------------------------------|


  (Verse)
[ Tab from: http://www.guitartabs.cc/tabs/c/chevelle/bend_the_bracket_tab_ver_2.html ]
  --------------------------------------------|
  --------------------------------------------|
  --------7----5----7-------------------------|
  --4-----7----5----7-------------------------|
  --4-----5----3----5-------------------------|
  --2-----------------------------------------|
  The strumming isn't hard to figure out


  (Chorus)

  --------------------------------------------|
  --------------------------------------------|
  ---9----7----5----7-------------------------|
  ---9----7----5----7-------------------------|
  ---7----5----3----5-------------------------|
  --------------------------------------------|

  This is played after the second chorus

  ----------------------------------------------------|
  ------------0----------0----------------------------|
  --4*----4-----0----4-----0----4--0-----4---2--------|
  --4---4---4------4---4------4----------4---2----4---|
  --2------------------------------------2---0----4---|
  ------------------------------------------------2---|

   That's pretty much it.  This is my first tab so i hope i did a good job.
Comments