Chevelle - An Evening With El Diablo Chords & Tabs

 

An Evening With El Diablo Chords & Tabs

Chevelle Chords & Tabs

Version: 2 Type: Tab 0 ratings
1 star 2 stars 3 stars 4 stars 5 stars
comments

An Evening With El Diablo Tab

   
Author/Artist: Chevelle 
Title: An Evening  with El Diablo
Album: Wonder What's Next ...
Transcribed by: J. Lane
Email: SactoDeftonesFan@yahoo.com

Tuning is dropped D down a half step (Low to highest: Db ab Db gb bb eb)
[ Tab from: http://www.guitartabs.cc/tabs/c/chevelle/an_evening_with_el_diablo_tab_ver_2.html ]
------------------------------------------------------------------------------
------------------------------------------------------------------------------
------------------------------------------------------------------------------
-2-2-2-2-2-2--2h3--2----------------------------------------------------------
-2-2-2-2-2-2--2h3--2----------------------------------------------------------
-2-2-2-2-2-2--2h3--2----------------------------------------------------------
 Chorus            pm                                                         

------------------------------------------------------------------------------
------------------------------------------------------------------------------
------------------------------------------------------------------------------
------------------------------------------------------------------------------
----------55----------55----------44----------44------------------------------
-222222222---222222222---222222222---222222222--------------------------------
 Verse (one of the last ones) This is also what the bass plays normally
Comments