Chet Atkins - My Funny Valentine Chords & Tabs

 

My Funny Valentine Chords & Tabs

Chet Atkins Chords & Tabs

Version: 1 Type: Tab 0 ratings
1 star 2 stars 3 stars 4 stars 5 stars
comments

My Funny Valentine Tab

Atkins Chet  "My Funny Valentine"
Transcribed by Steve Calloni
email scbccc@onecliq.net
E|----------------|----------------|-------3-1-0--0-|-----0----------|----------------|
B|---0-1-0-1-0----|---0-1-0-1-0----|---0-1-3----3--3|----3-3---------|----------------|
G|--2-------------|--2-------------|--2----2----2--2|---1------------|----------------|
D|----------------|----------------|-------0----4--4|--2-------------|----------------|
A|-0--------------|----------------|----------------|----------------|----------------|
E|-------4--------|-3-----2--------|-1--------------|-0--------------|----------------|

E|-----0---0------|-----0--0-------|-----0-75321----|----3-----------|----------------|
B|--1-3--3--3-----|--1-3-3--3------|--1-3--------1--|-5-3--1-1-0-1---|----------------|
G|----------------|----------------|----------------|-4----0-2-0-0-0-|----------------|
D|----------------|----------------|-------3-0------|-5------------0-|----------------|
A|-0--------------|----------------|----------------|-5--3-----------|----------------|
E|-------4--------|-3----2---------|-1---------4----|-3--------------|----------------|

E|-----5------------|-7--------0-----|-5---5-7--------|----------------|
B|-1-0--1-1-0-1--1-0|--55-1--3-------|----6-6--0-6-5-3|----------------|
G|-2-0----2-0--0-1--|--5540-30-------|---5--5---------|----------------|
D|-2-0---------2-2--|--77-2--2-------|--7-----6-------|----------------|
A|-0---3--0---3-----|-0---3--3-------|-8---8-7--------|----------------|
E|---3------3----0--|----------------|----------------|----------------|

E|----------------|-----0-0---------|--5-787-8-7-----|-8--8---8---8----|--------------|
B|---01010--------|--1-3-3-3--------|--------7--7----|---5---5---5----5|--------------|
G|--2-------------|-----------------|--------7--7----|--5---5---5----3-|--------------|
D|----------------|-----------------|--------7--7----|-7---6---5----4--|--------------|
A|-0--------------|-----------------|----8-7---7-----|-------------3---|--------------|
E|-----4----------|-3----2----------|-1--------------|-----------------|--------------|

E|------0--0------|----------------|----------------|-8---12-12------|----------------|
B|---1-3-3---3----|-----1----------|-3-4-5-8--9--10-|-----12-12------|----------------|
G|---2---2--------|---0-0----------|-5-5-5-9--9--9--|-----13-13------|----------------|
D|---3---3--------|-----2----------|-7-6-5-12-11-10-|-----14-14------|----------------|
A|----------------|-----3----------|----------------|----------------|----------------|
E|-1--------------|-3--------------|----------------|---0------------|----------------|
[ Tab from: http://www.guitartabs.cc/tabs/c/chet_atkins/my_funny_valentine_tab.html ]
E|----------------|-------------------|------S---S---|---------0-----|----------------|
B|----------------|----------s-s-s-s--|----01/8--\6-5|-3-5-3-3---3---|----------------|
G|--2-4-5-4-5-4---|---2-4-5-4/5/7\5\4-|---2--/9--\7--|-2-4-2-1---1---|----------------|
D|--------2---2---|---2-----4/5/7\5\4-|--3---/10-----|-4---4-2---2---|----------------|
A|-0--------------|---3-----5/7/9\7\5-|--------------|---------------|----------------|
E|--------4---4---|-3-3---------------|-1------------|---------------|----------------|

E|----------------|-0--3-3-2-3-2---|--------7-------|----------------|----------------|
B|---1/3/5-3-5-3--|--1-3-5-1---1---|-----5-8--10-8--|--7-6-3-6-3-2-3-|----------------|
G|--2-/4/5-4-5-4--|--2-4-5-2---2---|--5-7-----10-9--|-8-7--5-7-4-4---|----------------|
D|----------------|--------0---0---|-7--------------|------6-6-5-5---|----------------|
A|-0--------------|----------------|----------------|----------------|----------------|
E|---------4------|----------------|----------------|----------------|----------------|

E|-3--------------|-----------------------|--------------------------|----------------|
B|-5--1-1-0-1-----|------/10-8------------|-----------12-------------|----------------|
G|-5-2-2--0-0-----|-57545-----9-----------|--------------------------|----------------|
D|--------3-2-----|------------10-10-9-10-|-12-10-9-10--10-12-10-9-10|----------------|
A|----------------|-----------------------|--------------------------|----------------|
E|----------------|-----------------------|--------------------------|----------------|

E|-------------------|----------------|---8-10-12-10-12-10|--8/-10-12-10/12-10|-------|
B|------10-10-10-10--|-12-12-12-------|-10--12-13-12-13-12|--------13-10/12-10|-------|
G|---------12-10-9--7|----14-13-10-9--|-------------------|-9-/-12-12-11/13-11|-------|
D|-12-14-------------|----------------|-------------------|-------------------|-------|
A|-------------------|----------------|-------------------|-------------------|-------|
E|-------------------|----------------|-------------------|-------------------|-------|

E|--------------------|-8---8-------|-6--------|--------------|----------------|-11-12-|
B|-10---12-13-12/13-12|--12-10-8-10-|--10-8-6--|-6-6-8--6-8--6|--3-4-5-8--9--10|-12-13-|
G|---10-12-12-13----13|----------11-|---------9|-5-7-9--7-9--7|5-5-5-5-9--9--9-|-13-12-|
D|--------------------|-------------|----------|-7-7-10-7-10-7|5-7-6-5-12-11-10|-------|
A|--------------------|-------------|----------|--------------|----------------|-------|
E|--------------------|-------------|----------|--------------|------------------------|
Comments