Cherry Revision - Fork In The Road Chords & Tabs

 

Fork In The Road Chords & Tabs

Cherry Revision Chords & Tabs

Version: 1 Type: Tab 0 ratings
1 star 2 stars 3 stars 4 stars 5 stars
comments

Fork In The Road Tab

Fork in the Road
Cherry Revision

e--------------------------------------
b--------------------------------------
g--------------------------------------(play 2x)
d-------6-------2--------9-------4-----
a-----6-------2--------9-------4-------
E---4-----0-0------0-7-----0-2--------- Thats the intro 
[ Tab from: http://www.guitartabs.cc/tabs/c/cherry_revision/fork_in_the_road_tab.html ]
There are two parts next, pick which one want to play, or if your 
going solo I think it sounds best if you just play the intro instead 
of one of these parts.
(pre chorus)
e-----------------
b-----------------
g-----------------
d----1--1/4--1----
a--2--------------   That’s the first part
E-----------------

e--9--7--6--7-----
b-----------------
g----------------- play one till they sing "want to be found"
d-----------------
a-----------------
E-----------------
Next is the chords when they starts singing "What will happen…"
(chorus)
e--4---0---7---2--
b--4---0---7---2--
g--4---1---8---3--
d--6---2---9---4--
a--6---2---9---4--
E--4---0---7---2--

Play that every time the say what will happen
Play the intro or on of the pre chorus's for the time in between 
chorus's, only play the chorus chords when you hear them sing what
will happen.
 
Comments