Cherry Poppin Daddies - Irish Whisky Chords & Tabs

 

Irish Whisky Chords & Tabs

Cherry Poppin Daddies Chords & Tabs

Version: 1 Type: Bass Tab 0 ratings
1 star 2 stars 3 stars 4 stars 5 stars
comments

Irish Whisky Bass Tab

Song: Irish Whiskey
Artist: Cherry Poppin' Daddies
Tabbed by: Jestiphericus

INTRO              VERSE                CHORUS
G----------------I--------------------I--------------
D----------------I--------------------I--------------
A----------------I-----5--6-----6--5--I--6-----------
E--3----/----15--I--3--------1--------I-----6--8--6--
                                        BUT INSTEAD I'LL

G-----------------------------------------------
D-----------------------------------------------
A--------------------------6--6--6--6-----6-----
E--6--6--6--6--1--1--1--1--------------6-----6--
[ Tab from: http://www.guitartabs.cc/tabs/c/cherry_poppin_daddies/irish_whisky_btab.html ]
 DRINK W/ ME    BRIDGE 1        
G-------------I--------------------------------------------------
D-------------I--------------------------------------------------
A--1--1h3-----I--------------5--6--6--6--6--------------6--5--5--
E----------1--I--3--3--3--3-----------------4--4--4--4-----------

BRIDGE 2
G----------------------------------------------------------------
D----------------------------------------------------------------
A-----------6--------9--9--9--9-------------6--------------------
E--8--6--8-----8--6----------------8--6--8-----8--6--9--9--9--9--

SOLO 1
G---------------------------------------------------------------
D---------------------------------------------------------------
A---------8--8h9p8--8--------6--6h7p6--6--------4--4h5p4--4-----
E--8--11---------------6--9---------------4--7---------------7--

SOLO 2
G-----------------------
D-----------------------
A-----5--6--------2--1--
E--3--------4--4--------

Comments