Cherry Monroe - Gone Chords & Tabs

 

Gone Chords & Tabs

Cherry Monroe Chords & Tabs

Version: 1 Type: Tab 0 ratings
1 star 2 stars 3 stars 4 stars 5 stars
comments

Gone Tab

   
Artist: Cherry Monroe
Song: Gone
Album: Cherry Monroe (2004)
Tab by: Rob Schuster
Email: nopoeticdevice@graffiti.net

  Intro
	Guitar 1
e|-------------------------------------------------------------------------|
B|-------------------------------------------------------------------------|
G|-------------------------------------------------------------------------|
D|-888-666666666666-888-444444444444-888-666666666666-888-444444444444-888-|
A|-888-666666666666-888-444444444444-888-666666666666-888-444444444444-888-|
E|-666-444444444444-666-222222222222-666-444444444444-666-222222222222-666-|
[ Tab from: http://www.guitartabs.cc/tabs/c/cherry_monroe/gone_tab.html ]
	Guitar 2
e|-------------------------------------------------------------------------|
B|-------------------------------------------------------------------------|
G|-----666655553333-111-666655553333 111 666655553333 111-666655558888-888-|
D|-------------------------------------------------------------------------|
A|-------------------------------------------------------------------------|
E|-------------------------------------------------------------------------|

   Verse
	Guitar 1
e|-----------------------------------------------------------------------|
B|-----------------------------------------------------------------------|
G|-----------------------------------------------------------------------|
D|-888-666666666666-888-444444444444-888-666666666666-888-44444444444444-|
A|-888-666666666666-888-444444444444-888-666666666666-888-44444444444444-|
E|-666-444444444444-666-222222222222-666-444444444444-666-22222222222222-|
        ........... ... ............ ... ............ ... ........

   Chorus
	Guitar 1
e|-------------------|
B|-------------------|
G|-------------------|
D|-------------------|
A|-4---6-4---6-8---6-|
E|-------------------|

	Guitar 2
e|-------------------------|
B|-------------14----------|
G|----11-10-11----11-10-11-|
D|-11----------------------|
A|-------------------------|
E|-------------------------|

That's basically all you need to know.
Comments