Cherry Monroe - Bandages Chords & Tabs

 

Bandages Chords & Tabs

Cherry Monroe Chords & Tabs

Version: 1 Type: Tab 0 ratings
1 star 2 stars 3 stars 4 stars 5 stars
comments

Bandages Tab

   
Cherry Monroe is a band from Pittsburgh.  www.cherrymonroe.com
They are on rust records.  wwww.rustrecordsinc.com

-------------------------------------------------------------------------------
			     BANDAGES - CHERRY MONROE
-------------------------------------------------------------------------------
Tabbed by: Rob Schuster
Email: nopoeticdevice@graffiti.net

Tuning: Standard

  Intro 2x
e|------------------|
B|------------------|
G|------------------|
D|-9999777766665555-|
A|-9999777766665555-|
E|-7777555544443333-|

  Verse 2x
e|------------------|
B|------------------|
G|------------------|
D|------------------|
A|-99--77--66--55---|
E|-77--55--44--33---|
   ..  ..  ..  ..

  Pre Chorus 2x
e|------------------|
B|------------------|
G|-----2------------|
D|-4---2---222222---|
A|-4---0---222222---|
E|-2-------000000---|
           ......

  Pre Chorus contunied 2x
e|------------------|
B|------------------|
G|-4---2------------|
D|-4---2---4---9----|
A|-2---0---4---9----|
E|---------2---7----|
           ......
[ Tab from: http://www.guitartabs.cc/tabs/c/cherry_monroe/bandages_tab.html ]
  Chorus 4x
e|------------------|
B|------------------|
G|-----2------------|
D|-4---2---222222---|
A|-4---0---222222---|
E|-2-------000000---|
           ......

  Acoustic part 1x
e|--------------------------------------0---|
B|-------------------------------------0----|
G|---6-----6---------4-----6----6-----4-----|
D|--6-6---6-6---4-4-4-4---6-6--6-6---4------|
A|-4-----------2-0-------4----------2-------|
E|-------5---------4----------5-------------|
          
e|------------------------------------------|
B|------------------------------------------|
G|---6-----6---------4----------------------|
D|--6-6---6-6---4-4-4-4----5----7-----------|
A|-4-----------2-0--------5-5--7-7----------|
E|-------5---------4-----3----5-------------|

  Verse 2x
e|------------------|
B|------------------|
G|------------------|
D|------------------|
A|-99--77--66--55---|
E|-77--55--44--33---|

  Intro 2x
e|------------------|
B|------------------|
G|------------------|
D|-9999777766665555-|
A|-9999777766665555-|
E|-7777555544443333-|
         
  Chorus 3x
e|------------------|
B|------------------|
G|-----2------------|
D|-4---2---222222---|
A|-4---0---222222---|
E|-2-------000000---|
           ......

  Ending 1x
e|-------------|
B|-------------|
G|-4---2-------|
D|-4---2---2---|
A|-2---0---2---|
E|---------0---|

Contact me if you find anything incorrect.
Comments