Cherri Bomb - Shake The Ground Chords & Tabs

 

Shake The Ground Chords & Tabs

Cherri Bomb Chords & Tabs

Version: 1 Type: Bass Tab 0 ratings
1 star 2 stars 3 stars 4 stars 5 stars
comments

Shake The Ground Bass Tab

   
Artist: Cherri Bomb
Song: Shake The Ground
Album: This Is The End Of Control
Tuning: Standard(E,A,D,G)

Hey guys, this my first tab ever. It's a pretty easy song to play.
I used videos & the guitar tabs to put this together.
I'v worked on it a lot so I think I have everything down.

Follow me on Twitter: @JORDANeMAY
Follow me on Tumblr: killing-rage.tumblr.com
Subcribe to me on Youtube: Jordan May

-----------------------------------------------------------------------------------
Intro

G|--------------------------------------| 
D|----4-------4------4---------2--------|  (x2)
A|---------------------2-0-2-4---4-2-0--|
E|--2---2-2-2---2-2---------------------|

Verse 

G|------------------------------------------------| 
D|--------------4-------4------4---------2--------|
A|-------------------------------2-0-2-4---4-2-0--|(x2)
E|--2~---2~---2---2-2-2---2-2---------------------|

Chorus

G|---------------------------------------------------------------| 
D|---------------------------------------------------------------| 
A|--5555555555555--0000000000000--777777777777--2222222222222--4-|(x2) 
E|---------------------------------------------------------------|
(The second time playing this don't play 4)

Intro (Again)
[ Tab from: http://www.guitartabs.cc/tabs/c/cherri_bomb/shake_the_ground_btab.html ]
G|--------------------------------------| 
D|----4-------4------4---------2--------|  (x2)
A|---------------------2-0-2-4---4-2-0--|
E|--2---2-2-2---2-2---------------------|

Verse 

G|------------------------------------------------| 
D|--------------4-------4------4---------2--------|
A|-------------------------------2-0-2-4---4-2-0--|(x2)
E|--2~---2~---2---2-2-2---2-2---------------------|

Chorus

G|---------------------------------------------------------------| 
D|---------------------------------------------------------------| 
A|--5555555555555--0000000000000--777777777777--2222222222222--4-|(x2)
E|---------------------------------------------------------------|
(The second time playing this don't play 4)

Bridge

G|----------------------------------------------------------------| 
D|----------------------------------------------------------------|       
A|-----------------------------------------------------5--7777777-|
E|--2--5--7--8---7--5--2--22222222--2--5--7--8---7-(x3)-----------|

Chorus

G|---------------------------------------------------------------| 
D|---------------------------------------------------------------| 
A|--5555555555555--0000000000000--777777777777--2222222222222--4-|(x2)
E|---------------------------------------------------------------|
(The second time playing this don't play 4)

Outro 

G|------------------------|
D|------------------------|
A|------------------------|
E|--2--5--7--8---7--5--2~-|
Comments