Chemical Brothers - Block Rockin Beats Chords & Tabs

 

Block Rockin Beats Chords & Tabs

Chemical Brothers Chords & Tabs

Version: 3 Type: Bass Tab 0 ratings
1 star 2 stars 3 stars 4 stars 5 stars
comments

Block Rockin Beats Bass Tab

-------------------------------------------------------------------------------
			  Block Rockin' Beats - Chemical Brothers
-------------------------------------------------------------------------------

Tabbed By : Tom Widdows
e-mail: Tom_widdows@hotmail.com

Tuning: EADG

Intro

G|-------3---------5-----3-----5-----3-----5-----8---------------------------|
D|---------------------------------------------------------------------------|
A|----3-----3-3------3-----3-----3-----3-----3-3-----------------------------|
E|---------------------------------------------------------------------------|

Main Riff
[ Tab from: http://www.guitartabs.cc/tabs/c/chemical_brothers/block_rockin_beats_btab_ver_3.html ]
G|-------3-----5-----3-----5------8------------------------------------------|
D|---------------------------------------------------------------------------|
A|----3-----3-----3-----3-----3-3--------------------------------------------|
E|---------------------------------------------------------------------------|

Key Change (midway through song)

G|-------5-----7-----5-----7------10-----------------------------------------|
D|---------------------------------------------------------------------------|
A|----5-----5-----5-----5-----5-5--------------------------------------------|
E|---------------------------------------------------------------------------|


This takes a bit of practice to get up to speed. 
I recommend using a Plectrum

This is my version of the song that I developed after 
Listening to the song over and over many times.

Its good exercise for your fingers is all I can say
Comments