Chemical Brothers - Block Rockin Beats Chords & Tabs

 

Block Rockin Beats Chords & Tabs

Chemical Brothers Chords & Tabs

Version: 1 Type: Bass Tab 0 ratings
1 star 2 stars 3 stars 4 stars 5 stars
comments

Block Rockin Beats Bass Tab

Block Rockin' Beats by The Chemical Brothers.

This is the correct way to play it:

G|-------------------------------5----------------------------------------|
D|-------5-----7----5----7------------------------------------------------|
A|----0----0-----0----0------00-------------------------------------------|
E|------------------------------------------------------------------------|
[ Tab from: http://www.guitartabs.cc/tabs/c/chemical_brothers/block_rockin_beats_btab.html ]
When it slows down, I believe that it goes


G|-----------------------------5------------------------------------------|
D|-------5-----7----------7------(7)---------------------------------------|
A|------------------------------------------------------------------------|
E|------------------------------------------------------------------------|

Tabbed by nihilism.
http://vertexzero.net

Comments