Chelsea Grin - Recreant Chords & Tabs

 

Chelsea Grin Chords & Tabs

Version: 1 Type: Tab 0 ratings
1 star 2 stars 3 stars 4 stars 5 stars
comments

Recreant Tab

Artist: Chelsea Grin
www.myspace.com/chelseagrinmetal

Tuning: A Standard - AEADGBE
        Or for 6 string, AEADGB, you'll need to modify the sweep tab a bit,
        or use my Guitar Pro version of the solo and just transpose it into a
        6 string guitar of the same tuning.

Please let me know if I have made any errors.

If you use my tab for a youtube cover, please let me know, I'll be doing a cover 
possibly so you can hear it for yourself before learning it.

Tab Legend:

h - Hammer on
p - Pull off
s - Slide
[x] - Pinch Harmonic
t - tap

Tabbed by Matt Mulartschuk.

Sweeping solo edited and corrected by MICHAEL STAFFORD OF CHELSEA GRIN.

0.00 - 0.11
|------------------------------------------------------------------|
|------------------------------------------------------------------|
|------------------------------------------------------------------|
|------------------------------------------------------------------|
|-------------------------------------------------RIGHT------------|
|----------LEFT---------------------------------------0------------|
|--2-1-0-2-1-0-2-1-0-2-1-2-1-0--------2-1-0-2-1-0-2-1---2-1-2-1-0--|


0.12 - 0.39
|------------------------------------------------------------|
|------------------------------------------------------------|
|------------------------------------------------------------|
|------------------------------------------------------------|
|-------------------0-------------------------------0--------|
|--1-0-0-1-0-0-1-0--0-1-0-1-0-0----1-0-0-1-0-0-1-0--0-1-0-1--|
|--2-1-0-2-1-0-2-1----2-1-2-1-0----2-1-0-2-1-0-2-1----2-1-2--|

|----------------------------------------------------------------|
|----------------------------------------------------------------|
|----------------------------------------------------------------|
|----------------------------------------------------------------|
|-------------------0-----------------------------------0--------|
|--1-0-0-1-0-0-1-0--0-1-0-1-0-0--x3----1-0-0-1-0-0-1-0--0-1-0-1--|
|--2-1-0-2-1-0-2-1----2-1-2-1-0--------2-1-0-2-1-0-2-1----2-1-2--|


|------------------------------------|
|------------------------------------|
|------------------------------------|
|------------------------------------|
|-------------------0----------------|
|--1-0-0-1-0-0-1-0--0-1-0-1-0-0--x2--|
|--2-1-0-2-1-0-2-1----2-1-2-1-0------|


0.40 - 0.54
|------------------------------------------------|
|------------------------------------------------|
|------------------------------------------------|
|------------------------------------------------|
|------------------------------------------------|
|--00--5s4--00--5s4---4----00--5s4--00-----------|
|--00-------00------3------00-------00--5s4-1s3--|

0.55 - 1.08
|-----------------------------------------------------|
|-----------------------------------------------------|
|-----------------------------------------------------|
|------7s6------7s6-----6--------7s6------------------|
|-----------------------------------------------------|
|--00--5s4--00--5s4--3--4----00--5s4--00--5s4--1--[3]-|
|--00-------00-------3-------00-------00--5s4--1------|

1.09 - 1.12
|----------------------------------------------|
|----------------------------------------------|
|----------------------------------------------|
|----------------------------------------------|
|----------------------------------------------|
|--1--00-00--1--00-00--1--00-1-4-2-1-0-[3]-0---|
|--1--00-00--1--00-00--1--00-1-4-2-1-0-----0---|

[ Tab from: http://www.guitartabs.cc/tabs/c/chelsea_grin/recreant_tab.html ]
1.13 - 1.27
|-----------------------------------------|
|-----------------------------------------|
|-----------------------------------------|
|-----------------------------------------|
|--0--------------------------------------|
|--0---00-00-00-00-----00-00---00-00-00---|
|--0---00-00-00-00-----00-00---00-00-00---|


Let each ring. I do NOT know the lead for this part, sorry.
1.28 - 1.42
|------------------------------------|
|------------------------------------|
|------------------------------------|
|------------------------------------|
|--0---------------------------------|
|--0---00-00-00-00---0--000-000-000--|
|--0---00-00-00-00---0--000-000-000--|


1.43 - 1.57
|---------------------------------------------------|
|---------------------------------------------------|
|---------------------------------------------------|
|---------------------------------------------------|
|-0-------------------------------------------------|
|-0-----0-0-0--0----0-0-0--0-----00000000000000000--|
|-0-----0-0-0--0----0-0-0--0-----00000000000000000--|

What you've been waiting for:
THIS WAS CHECKED AND ERROR CORRECTED BY MICHAEL HIMSELF, IT IS 100% CORRECT.

1.58 - 2.27
|--17p12---------------17p12----------12-17p12----------12-17p12--------------|
|--------13------------------13----13----------13----13----------13-----------|
|-----------14------------------14----------------14----------------14--------|
|----------------------------------------------------------------------14-----|
|-------------------------------------------------------------------------15--|
|-----------------------------------------------------------------------------|
|-----------------------------------------------------------------------------|


|-----------------12--|
|--------------13-----|
|-----------14--------|
|--------14-----------|
|--12h15--------------|
|---------------------|
|---------------------|


|--17p12----------12-17p12--------------------------13-19p13--------|
|--------13----13----------13--------------------15----------15-----|
|-----------14----------------14--------------16----------------16--|
|-------------------------------------------15----------------------|
|-------------------------------------14-17-------------------------|
|-------------------------------------------------------------------|
|-------------------------------------------------------------------|

2.28 - 2.43
|------------------------------------------------|
|------------------------------------------------|
|------------------------------------------------|
|------------------------------------------------|
|------------------------------------------------|
|--00--5s4--00--5s4---4----00--5s4--00-----------|
|--00-------00------3------00-------00--5s4-1s3--|

2.44 - 2.47
|--------------------------|
|--------------------------|
|--------------------------|
|------7s6------7s6--5--6--|
|--------------------------|
|--00--5s4--00--5s4--3--4--|
|--00-------00-------------|

2.48 - 3.01
|-----------------------------------------------------|
|-----------------------------------------------------|
|-----------------------------------------------------|
|------7s6------7s6-----6--------7s6------------------|
|-----------------------------------------------------|
|--00--5s4--00--5s4--3--4----00--5s4--00--5s4--1--[3]-|
|--00-------00-------3-------00-------00--5s4--1------|


3.02 - end
|--------------------|
|--------------------|
|--------------------|
|--------------------|
|--------------------|
|--1-1-1---1-1-1-0---|
|--2-2-2---2-2-2-0---|
Comments