Cheese - Hele Chords & Tabs

 

Hele Chords & Tabs

Cheese Chords & Tabs

Version: 2 Type: Tab 0 ratings
1 star 2 stars 3 stars 4 stars 5 stars
comments

Hele Tab

   
SONG: Hele
BAND: Cheese
ALBUM: Pilipinas
RE-ARRANGE AND PASTE BY :Dean Quezo


Tuning: Tune guitar 2 1/2 step down then drop d (A E A d F# B).

Intro:
B -------------------------|
F#-------------------------|
D --6-6-6/8-8--------------|
A --6-6-6/8-8-0h3-3-0h3-3--|3x
E --4-4-4/6-6-0h3-3-0h3-3--|
A --4-4-4/6-6-0h3-3-0h3-3--|

B ----------------|
F#----------------|
D --6-6-6/8-8--3--|
A --6-6-6/8-8--3--|
E --4-4-4/6-6--3--|
A --4-4-4/6-6--3--|

Verse:
B ------------------------------------------------|
F#------------------------------------------------|
D -3-3--------------------------6-6-8-8--5-5-5-5--|2x
A -3-3---2-2h3-2-3-3---3-3h4-3--6-6-8-8--5-5-5-5--|
E -1-1-3---------3-3-4----------4-4-6-6--3-3-3-3--|
A ---------------3-3------------4-4-6-6-----------|
You drive me out in space...

B -------------------------|
F#-------------------------|
D --6-6-6/8-8--------------|
A --6-6-6/8-8-0h3-3-0h3-3--|3x
E --4-4-4/6-6-0h3-3-0h3-3--|
A --4-4-4/6-6-0h3-3-0h3-3--|
you...

B -------------|
F#-------------|
D --6-6-6/8-8--|
A --6-6-6/8-8--|
E --4-4-4/6-6--|
A --4-4-4/6-6--|
you...

B ------------------- -----------------------|
F#------------------- -----------------------|
D --9-9-9-9-9-9-9-9-- -----------------------|
A --9-9-9-9-9-9-9-9-- ----9------12---7---7--|4x
E --7-7-7-7-7-7-7-7-- -/7---7/10----5---4----|
A --7-7-7-7-7-7-7-7-- -----------------------|
Hear me...            Breathe where the wind blows...

B -----------------------|
F#-----------------------|
D --------3-3-------2-2--|4x
A --0h2-2-3-3-0h2-2-2-2--|
E --0h2-2-1-1-0h2-2-0-0--|
A --0h2-2-----0h2-2------|
[ Tab from: http://www.guitartabs.cc/tabs/c/cheese/hele_tab_ver_2.html ]
B ----------------------------------------------------|
F#----------------------------------------------------|
D --8-8-10-10-5-5-5-5--11-11-13-13-3-3-3/6-6-6\4-4-4--|
A --8-8-10-10-5-5-5-5--11-11-13-13-3-3-3/6-6-6\4-4-4--|
E --6-6-8--8--3-3-3-3--9--9--11-11-1-1-1/4-4-4\2-2-2--|
A --6-6-8--8------------------------------------------|
Took me to no desert...

Verse:
B ------------------------------------------------|
F#------------------------------------------------|
D -3-3--------------------------6-6-8-8--5-5-5-5--|2x
A -3-3---2-2h3-2-3-3---3-3h4-3--6-6-8-8--5-5-5-5--|
E -1-1-3---------3-3-4----------4-4-6-6--3-3-3-3--|
A ---------------3-3------------4-4-6-6-----------|
You make me fly...

B -------------------------|
F#-------------------------|
D --6-6-6/8-8--------------|
A --6-6-6/8-8-0h3-3-0h3-3--|3x
E --4-4-4/6-6-0h3-3-0h3-3--|
A --4-4-4/6-6-0h3-3-0h3-3--|
you...

B -------------|
F#-------------|
D --6-6-6/8-8--|
A --6-6-6/8-8--|
E --4-4-4/6-6--|
A --4-4-4/6-6--|
you...

B ------------------- -----------------------|
F#------------------- -----------------------|
D --9-9-9-9-9-9-9-9-- -----------------------|
A --9-9-9-9-9-9-9-9-- ----9------12---7---7--|4x
E --7-7-7-7-7-7-7-7-- -/7---7/10----5---4----|
A --7-7-7-7-7-7-7-7-- -----------------------|
Hear me...            Breathe where the wind blows...

B -----------------------|
F#-----------------------|
D --------3-3-------2-2--|4x
A --0h2-2-3-3-0h2-2-2-2--|
E --0h2-2-1-1-0h2-2-0-0--|
A --0h2-2-----0h2-2------|

B ---------------------  ----------------------------------|
F#---------------------  ----------------------------------|
D --8-8-10-10-5-5-5-5--2x--11-11-13-13-3-3-3/6-6-6\4-4-4---|
A --8-8-10-10-5-5-5-5--  --11-11-13-13-3-3-3/6-6-6\4-4-4---|
E --6-6-8--8--3-3-3-3--  --9--9--11-11-1-1-1/4-4-4\2-2-2---|
A --6-6-8--8-----------  ----------------------------------|
Took me to no desert...

B --------------------|
F#--------------------|
D -3-3-3/6-6-6\4-4-4--|3x
A -3-3-3/6-6-6\4-4-4--|
E -1-1-1/4-4-4\2-2-2--|
A --------------------|

B --------------------------|
F#--------------------------|
D -3-3-3/6-6-6\4-4-4/5-5-6--|
A -3-3-3/6-6-6\4-4-4/5-5-6--|
E -1-1-1/4-4-4\2-2-2/3-3-4--|
A -----------------------4--|

_end_
Comments