Cheese - Gaido Chords & Tabs

 

Gaido Chords & Tabs

Cheese Chords & Tabs

Version: 2 Type: Tab 0 ratings
1 star 2 stars 3 stars 4 stars 5 stars
comments

Gaido Tab

   
SONG: Gaido
BAND: Cheese
ALBUM: Cheese
TRANSCRIBED BY:Dean Quezo!! buwahahahah
Pra sa mga astig na rakista na idol ang quezo e2 pra sa inyo pra mka tulong!!!
Tuning: Tune guitar 2 1/2 step down then drop d (A E A d F# B).

LEGEND:

/ or \   - slide up or down
p        - pull off
h	 - hammer on
p.m. --- - palm mute
( )      - natural harmonics

Intro: (you have to figure out the rhythm)
B ------------------------------------------------|
F#-13-13-13-13-13-13-13-13-12-12-12-12-12-12-12---|
D -10-10-10-10-10-10-10-10-10-10-10-10-10-10-10---| 6x
A -10-10-10-10-10-10-10-10-10-10-10-10-10-10-10---|
E ------------------------------------------------|
A ------------------------------------------------|

B -------------|
F#-------------|
D ---4---4-----| 8x
A -3-4-3-4-3-0-|
E -3-2-3-2-3-0-|
A -3---3---3-0-|

                                 -----------------------------
Verse:                          |       1st-3rd time          |
B ---------------------------------------------------(8)------|
F#--------------------(8)(8)(8)-------------------(8)---(8)---|
D ------------------------------------------------------------|
A ------------------------------------------------------------|(4x)
E -0-3-4-0-3-0-3-4-0------------0-3-4-0-3-0-3-4-0-------------|
A -0-3-4-0---0-3-4-0------------0-3-4-0---0-3-4-0-------------|
   - - - -   - - - -            - - - -   - - - -
 ________________________________
|          4th time              |
B -------------------------------|
F#-------------------------------|
D -------------------------------|
A -------------------------------|
E -0-3-4-0-3-0-3-4-0-3-0-3-4-0-3-|
A -0-3-4-0---0-3-4-0---0-3-4-0---|
   - - - -   - - - -   - - - -
[ Tab from: http://www.guitartabs.cc/tabs/c/cheese/gaido_tab_ver_2.html ]
Chorus:
B -----------------    -------------|
F#-----------------    -------------|
D -----------------    -------------|
A -0-3-4-0-3-4-0-3- 7x -0-3-4-0-3-4-|
E -0-3-4-0-3-4-0-3-    -0-3-4-0-3-4-|
A -0-3-4-0-3-4-0-3-    -0-3-4-0-3-4-|
   - - - - - - -        - - - - - -

                         ___________     _____________________________
                        |1st-3rdtime|   |          4th time           |
B ----------------------------------    ------------------------------|
F#----------------------------------    ------------------------------|
D ---------------------------------- 4x ------------------------------|
A ----------------------0-3-4-0-3---    ----------------------0--0--0-|
E ---3h4---3---3h4---3--0-3-4-0-3---    ---3h4---3---3h4---3--0--0--0-|
A -0-----0---0-----0----0-3-4-0-3---    -0-----0---0-----0----0--0--0-|
   -     -   -     -    - - - -          -     -   -     -    -  -  -

repeat verse & chorus

Bridge:

Guitar 1
B -0---------|
F#-0---------|
D -0---------|8x
A -0----3----|
E -0----3----|
A -0----3----|

Guitar 2
B ------------------------------------------------------------------------------------------|
F#------------------------------------------------------------------------------------------|
D --7--7/10-10/12-12\7-7\5--5/7-7-12-12-12-12-11111111\10-10-10-12-12-12-12-11111111\7-7-7--|
A ------------------------------------------------------------------------------------------|
E --5--5/8---8/10-10\5-5\3--3/5-5-10-10-10-10--9-9-9-9\8---8--8-10-10-10-10--9-9-9-9\5-5-5--|
A ------------------------------------------------------------------------------------------|

B -----------------------------------------|
F#-----------------------------------------|
D -12-12-12-12-11111111\5-5-5-5-5-5-5-5-5--|
A -----------------------------------------|
E -10-10-10-10--9-9-9-9\3-3-3-3-3-3-3-3-3--|
A -----------------------------------------|
Comments