Cheese - Disconnect Chords & Tabs

 

Disconnect Chords & Tabs

Cheese Chords & Tabs

Version: 1 Type: Tab 0 ratings
1 star 2 stars 3 stars 4 stars 5 stars
comments

Disconnect Tab

   
SONG: Disconnect
BAND: Cheese
ALBUM: Pilipinas
Re-arrange by:Dean Quezo-- heheheh


Tuning: Tune guitar 2 1/2 step down then drop d (A E A d F# B).

Intro:
B ----------|
F#----------|
D --4-------|2x
A --4-0-3-3-|
E --2-0-3-3-|
A ----0-3-3-|

Verse:
B ---------------------------|
F#---------------------------|
D --4------------------------|4x
A --4-0-3-3------------------|
E --2-0-3-3------------------|
A ----0-3-3-2p1-0-1-2p1-0-1--|
I've realized, your reflection...

B -----------|
F#-----------|
D -----------|10x
A -----------|
E -----------|
A --2p1-0-1--|
grave....

B -------------------------|
F#-------------------------|
D --9tr--------12tr--------|
A -------------------------|4x tr=tremolo picking
E --7tr--------10tr--------|
A -------------------------|
Precision of her misery...

B ---------------------------|
F#---------------------------|
D --4-------4----------------|
A --4-0-3-3-4-0-3-3-000-000--|
E --2-0-3-3-2-0-3-3-000-000--|
A ----0-3-3---0-3-3-000-000--|
I can see you through...

B ---------------------------|
F#---------------------------|
D --4------------------------|4x
A --4-0-3-3------------------|
E --2-0-3-3------------------|
A ----0-3-3-2p1-0-1-2p1-0-1--|
I've realized, your reflection...


B -----------|
F#-----------|
D -----------|10x
A -----------|
E -----------|
A --2p1-0-1--|
grave....


B -------------------------|
F#-------------------------|
D --9tr--------12tr--------|
A -------------------------|4x tr=tremolo picking
E --7tr--------10tr--------|
A -------------------------|
Having conversation with despair...

B ----------|
F#----------|
D ----------|4x
A ----------|
E --2-------|
A ----0-3-3-|
I can see you...
[ Tab from: http://www.guitartabs.cc/tabs/c/cheese/disconnect_tab.html ]
B -----------------|---------------------------|----------------|
F#-----------------|---------------------------|----------------|
D -----------------|---------------------------|----------------|2x
A ---------------3-|-------------------------3-|-------------3--|
E ---------------3-|-------------------------3-|-------------3--|
A -3p2p0--3p2p0--3-|-3p2p0-3p2p0-3p2p0-3p2p0-3-|-3p2p0-3p2p0-3--|
If I'll see you drowning, suffering...

B -------------------|
F#-------------------|
D -------------------|2x
A ----------------3--|
E ----------------3--|
A --3p2p0--3p2p0--3--|
Take my hand...
 _________________________________________
|             repeat 2x                   |
B ----------------------   ---------------|
F#----------------------   ---------------|
D ----------------------3x ---------------|
A ----------------------   ---------------|
E -5tr------------------   ----3---3---3--|
A -----3tr-5tr-6tr-5tr--   --2---2---2----|

B --------------|
F#--------------|
D --------------|4x
A --------------|
E -------3---3--|
A -0-3-2---2----|

B --------------|
F#--------------|
D --------------|4x
A --------------|
E -2-2----------|
A -----0-3-3-0--|

B ---------------------------|
F#---------------------------|
D --4------------------------|4x
A --4-0-3-3------------------|
E --2-0-3-3------------------|
A ----0-3-3-2p1-0-1-2p1-0-1--|
I've realized, your reflection...

B -----------|
F#-----------|
D -----------|20x
A -----------|
E -----------|
A --2p1-0-1--|
grave....

B -------|
F#-------|
D -------|
A --0-0--|
E --0-0--|
A --0-0--|

Astig tlga quezo!! bago ang lahat binabati q nga pla ung mga kaibigan q dyan s san juan 
lalo na s brgy. Corazon astig ung mga rakista dyan!!! heheh mraming aq kaibigan dyan pti 
mga k banda q  lheo,phoy,fricia!!
Comments