Cheese - 10x Karma Chords & Tabs

 

10x Karma Chords & Tabs

Cheese Chords & Tabs

Version: 3 Type: Tab 0 ratings
1 star 2 stars 3 stars 4 stars 5 stars
comments

10x Karma Tab

   
SONG: 10x Karma
BAND: Cheese
ALBUM: Cheese
TRANSCRIBED BY:Dean Quez-0


Tuning: Tune guitar 3 1/2 step down then drop d (A E A d F# B).

LEGEND:

/ or \   - slide up or down
p        - pull off
  h	 - hammer on
p.m. --- - palm mute

Intro:

B -------------------------------------|
F#-------------------------------------|
D--------------------------------------|4x
A --0h1--1h2--0--2h3--0--3h4--0--4-----|
E -------------------------------------|
A -------------------------------------|
p.m.          -       -       -

B -------------------------------------|
F#-------------------------------------|
D--------------------------------------|4x
A --0h1--1h2--0--2h3--0--3h4--0--4-----|
E --0h1--1h2--0--2h3--0--3h4--0--4-----|
A --0h1--1h2--0--2h3--0--3h4--0--4-----|

B ----------------------------------|
F#----------------------------------|
D --5-5--5---5-4--4-4---------------|
A --5-5--5-4-5-4--4-4--0-0-0-0-0-0--|
E --3-3--3-4-3-2--2-2--0-0-0-0-0-0--|
A ---------4-----------0-0-0-0-0-0--|
p.m.                   - - - - - -

Verse:
[ Tab from: http://www.guitartabs.cc/tabs/c/cheese/10x_karma_tab_ver_3.html ]
B ------------------------------------------|
F#------------------------------------------|
D ------------------------------------------|
A --4-4-x-----------------------------------|8x
E --------4-4-x-------4-4-x-2-2x-1-1x-2-2x--|
A --------------4-4-x-----------------------|

Refrain:

B --------------------|
F#--------------------|
D --------6-------x-5-|4x
A --4-4-x-6-x-3-3-x-5-|
E --4-4-x-4-x-3-3-x-3-|
A --4-4-x---x-3-3-----|

repeat verse & refrain

Chorus:

B -------------------------|
F#-------------------------|
D -------------------------|4x
A --0--4-5/12--0-0--4-5/12-|
E --0--4-5/12--0-0--4-5/12-|
A --0--4-5/12--0-0--4-5/12-|

repeat verse & refrain 2x then chorus

            _____________4x_________________
Bridge:    |                                |
B --0--|   -------------|     ---------------|
F#--0--|   -------------|     ---------------|
D --0--|5x -------------|3x   ---------------|
A --0--|   -------------|then ---------------|
E --0--|   -------------|     ---------------|
A --0--|   -0--0-0--0-0-|     -3--3-3--3-3---|
p.m.        -  - -  - -        -  - -  - -

B ---------------------------------------------------------|
F#---------------------------------------------------------|
D----------------------------------------------------------|8x
A ---------------------------------------------------------|
E ---------------------------------------------------------|
A --0--0-0--0-0--3--3-3--3-3--4--4-4--4-4--2--2-2--2-2-----|
p.m.-  - -  - -  -  - -  - -  -  - -  - -  -  - -  - -

repeat intro

_end_
Comments