Cheerleader666 - Go Chords & Tabs

 

Go Chords & Tabs

Cheerleader666 Chords & Tabs

Version: 1 Type: Tab 0 ratings
1 star 2 stars 3 stars 4 stars 5 stars
comments

Go Tab

   
this is one of the craziest rock bands ive ever heard, their a grunge/hard rock band out
of toronto with some crazy guitar.

tuning-drop D-DADGBe

b-bend
*-pinch harmonic
h-hammer on
p-pull off

I AM NOT SHOWING STRUMMING PATTERNS-FIGURE THEM OUT YOURSELF ITS NOT HARD

Intro1 (other guitar plays an A chord over and over)

1------------------------------------------------|
2-----5------------------------------5-----------|
3-757-7b(9)7575---  x3 then    --757-7b-7575-5---|
4--------------7----------------------------7-7--|
5------------------------------------------------|
6------------------------------------------------|

Intro 2(other guitar plays A-A-C-G)

1-------------------------------55---55---55--55----55-------|
2-----5-----------------------5-55-5-55-5-55-5-55-5-55-------|
3-757-7b-7575-5---- x3 then  -7b---7b---7b---7b---7b---------|
4------------7-777-------------------------------------------|
5------------------------------------------------------------|
6------------------------------------------------------------|

intro 3

1------------------------------------------|
2-----------------------5------------------|
3---5-5--7-5-7*b(8)-757-7b-7575-5----------|
4-777777-777-------------------7-----------| then
5------------------------------------------|
6------------------------------------------|
[ Tab from: http://www.guitartabs.cc/tabs/c/cheerleader666/go_tab.html ]
1---------------------------------------------------------|
2-----------------------------------8-5------5-8-8b(10)---|
3---5--5--5--5--5---7*b-7*b-7-5-5-7----8-7-5--------------|
4-777777777777777--------------7------------7-------------|
5---------------------------------------------------------|
6---------------------------------------------------------|

Other guitar plays

1----------------------|
2----------------------|
3-5--------5--7--------|
4-5--5-7---5--7--5-----|
5-3--5-7---3--5--5-----|
6----5-7---------5-----|

Verse

1----------------------|
2----------------------|
3-2--------------------|
4-2--5-3--0----5-7-----| the Gs(5 chord)are just fillers, dont hold them for
5-0--5-3--0----5-7-----|  full bars
6----5-3--0----5-7-----|

Mini solo(other guitar plays A-G)

1--------------------------------------------|
2--------------------------------------------|
3--------------------------------------------|
4-7-7-5-7--7-5-7--7-5-9b(10)7h9p7--7-5-5-----|
5----7------7------5-------------7----7------|
6--------------------------------------------|

chorus

1----------------------|
2----------------------|
3----------------------|
4-3----0---------------| x8
5-3----0---------------|
6-3----0---------------|

bridge(other guitar plays verse)

1-------------------------------------------------|
2-------------------------------------------------|
3-------------------------------------------------|
4-------------------------------------------------|
5-00-33-22-33-77-33-22-33-00-33-22-33-55-33-22-33-|
6-------------------------------------------------|

thats all(please rate this well, i busted my ass on the intro
the solo im working on so ill try to get that soon

peace out
Comments