Cheech And Chong - Earache My Eye Chords & Tabs

 

Earache My Eye Chords & Tabs

Cheech And Chong Chords & Tabs

Version: 3 Type: Tab 0 ratings
1 star 2 stars 3 stars 4 stars 5 stars
comments

Earache My Eye Tab

   
PLEASE REPLACE MY OLD ONE WITH THIS

Tabbed by the Slayer/Simon

This tab is the best and i know hardly anywon listens to cheech and chong but its still the best.
x = stop
Intro
E|---|
B|---|
G|-5-| Let it ring
D|-5-|
A|-3-|
E|---|

Intro 2
E|---------------|
B|---------------|
G|---------------|
D|-77-55-1010-77-|
A|-55-33--8-8-55-|
E|---------------|
[ Tab from: http://www.guitartabs.cc/tabs/c/cheech_and_chong/earache_my_eye_tab_ver_3.html ]
Riff 1
E|-----------------------------------------|
B|-----------------------------------------|
G|-----------------------------------------|
D|-----------------------------------5-6-7-|
A|-5-7-5-------5-7-5-------7-6-5-5-5-------|
E|-------5-7-5-------5-7-5-----------------|

Riff 2
E|---------------------|
B|---------------------|
G|---------------------|
D|--------------1010-5-|
A|--------------1010-5-|
E|-5-4-3--5-4-3--8-8-7-|

Interlude
E|------------------x------------------|
B|------------------x------------------|
G|------------------x------------------|
D|------------------x------------------|
A|-777-555-1010-777-x-777-555-1010-777-|
E|-555-333--8-8-555-x-555-333--8-8-555-|

Order
Intro
Intro 2
Riff  1
Riff  2
Lyrics
Riff 1
Youll figure it out
                  
Just end on the interlude
Comments