Cheech And Chong - Beaners Chords & Tabs

 

Beaners Chords & Tabs

Cheech And Chong Chords & Tabs

Version: 1 Type: Tab 0 ratings
1 star 2 stars 3 stars 4 stars 5 stars
comments

Beaners Tab

This is the song off of Cheech and Chong's Next Movie 
Artist:Cheech & Chong
Song:Beaners
I'm not sure of the name of the song
[ Tab from: http://www.guitartabs.cc/tabs/c/cheech_and_chong/beaners_tab.html ]
e----------------------------
B----------------------------
G----------------------------
D----------------------------
A--5-5-7-5-8-5-7-5-----------
E--3-3-3-3-3-3-3-3-----------

That's the basic riff but you could also go higher


e----------------------------
B----------------------------
G----------------------------
D--5-5-7-5-8-5-7-5-----------
A--3-3-3-3-3-3-3-3-----------
E----------------------------
Comments