Cheap Trick - I Want You To Want Me Chords & Tabs

 

I Want You To Want Me Chords & Tabs

Cheap Trick Chords & Tabs

Version: 2 Type: Tab 0 ratings
1 star 2 stars 3 stars 4 stars 5 stars
comments

I Want You To Want Me Tab

   
This is a freaking good song, im suprised noone had a decent tab yet


tuning-standard-EADGBe

/-slide up
\-slode down
b-bend
^-bend and bend back
h-hammer on
p-pull off
v-vibrato

intro/outro

1-------------------------------------------------------
2--17------17--17---------------------------------------
3--16b(17)-16b-16b-14/12\14--17--17----------7----------
4----------------------------16b-16b/14--5---7---7------
5----------------------------------------5---5---7------
6----------------------------------------3-------5------

Verse

1---------------------------------------------------------------
2---------------------------------------------------------------
3---------------------------------------------------------------
4---7-7-7-7--7-7-7-7--7-7-7-7--6-6-6-6---4-4-4-4-4-4-4--4-4-4-4-
5---7-7-7-7--7-7-7-7--7-7-7-7--6-6-6-6---4-4-4-4-4-4-4--4-4-4-4-
6---5-5-5-5--5-5-5-5--5-5-5-5--4-4-4-4---2-2-2-2-2-2-2--2-2-2-2-

1-------------------------------------------------
2-------------------------------------------------
3------------7-7-7-7--7-7-7-7--7-7-7-7--6-6-6-6---
4--2-2-2-2---7-7-7-7--7-7-7-7--7-7-7-7--6-6-6-6---       Reapet as necesary
5--2-2-2-2---5-5-5-5--5-5-5-5--5-5-5-5--4-4-4-4---
6--0-0-0-0----------------------------------------


Pre Chorus

1-----------------------------------------------------------
2-----------------------------------------------------------
3----------4-4-4-4------------------------------------------
4-4-4-4-4--4-4-4-4--5-5-5-5--7-7-7-7------------------------
5-4-4-4-4--2-2-2-2--5-5-5-5--7-7-7-7------------------------
6-2-2-2-2-----------3-3-3-3--5-5-5-5------------------------

1-----------------------------------------------------------
2-----------------------------------------------------------
3----------4-4-4-4------------------------------------------
4-4-4-4-4--4-4-4-4--5-5-5-5-5-5-5-5--4-4-4-4-4-4-4-4--------
5-4-4-4-4--2-2-2-2--5-5-5-5-5-5-5-5--4-4-4-4-4-4-4-4--------
6-2-2-2-2-----------3-3-3-3-3-3-3-3--2-2-2-2-2-2-2-2--------

Chorus
[ Tab from: http://www.guitartabs.cc/tabs/c/cheap_trick/i_want_you_to_want_me_tab_ver_2.html ]
1------------------------------------------------------------------------
2------------------------------------------------------------------------
3-------------------------------------------------------7-7-7-7-7-7-7-7--
4-7-7-7-7-7-7-7-7--2-2-2-2-2-2-2-2-2--4-4-4-4-4-4-4-4---7-7-7-7-7-7-7-7--
5-7-7-7-7-7-7-7-7--2-2-2-2-2-2-2-2-2--4-4-4-4-4-4-4-4---5-5-5-5-5-5-5-5--
6-5-5-5-5-5-5-5-5--0-0-0-0-0-0-0-0-0--2-2-2-2-2-2-2-2--------------------

Solo 1

1---------------------------------------------------------------------------
2-14-------14---14---14---14---14------------14-----------------------------
3---16b(18)--16b--16b--16b--16b--16-14-13-11\--16-14-13-11-9-7-6-6^(7)-7-9b\
4---------------------------------------------------------------------------
5---------------------------------------------------------------------------
6---------------------------------------------------------------------------

Solo 2

1-17------17---17---17---17---17---17----------
2---20(22)--20b--20b--20b--20b--20b--20^\/13-13-
3-----------------------------------------------
4-----------------------------------------------
5-----------------------------------------------
6-----------------------------------------------

1-------------------------------------------------
2-13-13-13-13-13--------13-----13-13-14-15-16\----
3---------------14-12-14--14-12-------------------
4-------------------------------------------------
5-------------------------------------------------
6-------------------------------------------------

There are a few fills in the song but i don't know all of them so i just gave the major
one in the verses(1)e fast one that happens in the end of the first pre chorus and the
end of the second verse(2)d the one in the first pre chorus(3)

Major Fill(1)     Fast Fill Thingie(2)      Pre Chourus Thing (3)

1---------------  1-----------------------  1-------------------
2-5^(6)-5^(6)---  2-2p0-------------------  2-5-4-3-2-5-4-3v--2-
3------7-----7--  3----h2p1---------------  3-------------------
4---------------  4--------h4p2p0---------  4-------------------
5---------------  5--------------h4p2p0---  5-------------------
6---------------  6--------------------p4-  6-------------------

thanx, please rate this well, i worked for like an hour on it. 
if you got any questions, e-mail me at horny_devil183@hotmail.com
Comments