Cheap Trick - I Want You To Want Me Chords & Tabs

 

Cheap Trick Chords & Tabs

Version: 1 Type: Tab 0 ratings
1 star 2 stars 3 stars 4 stars 5 stars
comments

I Want You To Want Me Tab

   
s=slide
~=hold note
b=bend

the intro doesn't fit in perfectly but it's another way of playing it.

intro
e----------------------------------------------------
B----------------------------------------------------
G---5s9~--9--9--7--5~--7--9~--9--7~--7--5~-----------
D----------------------------------------------------
A----------------------------------------------------
E----------------------------------------------------

i want u 2 want me...
e-----------------------------------------------------------------------------
B-----------------------------------------------------------------------------
G-----------------------------------------------------------------------------
D-10-10-10-10-10-10-10-10-10-10-10-10-9999-777777777777-5555-333333333333-2222
A-10-10-10-10-10-10-10-10-10-10-10-10-9999-777777777777-5555-333333333333-2222
E-8--8--8--8--8--8--8--8--8--8--8--8--7777-555555555555-3333-111111111111-0000

e-----------------------------------------------------------------------------
B-----------------------------------------------------------------------------
G-----------------------------------------------------------------------------
D-10-10-10-10-10-10-10-10-10-10-10-10-9999-777777777777-5555-333333333333-2222
A-10-10-10-10-10-10-10-10-10-10-10-10-9999-777777777777-5555-333333333333-2222
E-8--8--8--8--8--8--8--8--8--8--8--8--7777-555555555555-3333-111111111111-0000

e-----------------------------------------------------------------------------
B-----------------------------------------------------------------------------
G-----------------------------------------------------------------------------
D-10-10-10-10-10-10-10-10-----------------------------------------------------
A-10-10-10-10-10-10-10-10-----------------------------------------------------
E-8--8--8--8--8--8--8--8------------------------------------------------------

shine up my old brown shoes...
e--5b~--3--2--1--0--3--2--1~--0-------------
B-------------------------------------------
G-------------------------------------------
D-------------------------------------------
A-------------------------------------------
E-------------------------------------------

didn't i, didn't i, did'nt i see u crying...

e----------------------------------------------------------------------
B----------------------------------------------------------------------
G-------------------------------------------10-10-10-10-10-10-10-10----
D-10-10-10-10-10-10-10-10-55555555-77777777-10-10-10-10-10-10-10-10----
A-10-10-10-10-10-10-10-10-55555555-77777777-8--8--8--8--8--8--8--8-----
E-8--8--8--8--8--8--8--8--33333333-55555555----------------------------
[ Tab from: http://www.guitartabs.cc/tabs/c/cheap_trick/i_want_you_to_want_me_tab.html ]
e----------------------------------------------------------------------
B----------------------------------------------------------------------
G-------------------------------------------10-10-10-10-10-10-10-10----
D-10-10-10-10-10-10-10-10-55555555-77777777-10-10-10-10-10-10-10-10----
A-10-10-10-10-10-10-10-10-55555555-77777777-8--8--8--8--8--8--8--8-----
E-8--8--8--8--8--8--8--8--33333333-55555555----------------------------

i want u 2 want me...
e-----------------------------------------------------------------------------
B-----------------------------------------------------------------------------
G-----------------------------------------------------------------------------
D-10-10-10-10-10-10-10-10-10-10-10-10-9999-777777777777-5555-333333333333-2222
A-10-10-10-10-10-10-10-10-10-10-10-10-9999-777777777777-5555-333333333333-2222
E-8--8--8--8--8--8--8--8--8--8--8--8--7777-555555555555-3333-111111111111-0000

e-----------------------------------------------------------------------------
B-----------------------------------------------------------------------------
G-----------------------------------------------------------------------------
D-10-10-10-10-10-10-10-10-10-10-10-10-9999-777777777777-5555-333333333333-2222
A-10-10-10-10-10-10-10-10-10-10-10-10-9999-777777777777-5555-333333333333-2222
E-8--8--8--8--8--8--8--8--8--8--8--8--7777-555555555555-3333-111111111111-0000

e-----------------------------------------------------------------------------
B-----------------------------------------------------------------------------
G-----------------------------------------------------------------------------
D-10-10-10-10-10-10-10-10-10-10-10-10-----------------------------------------
A-10-10-10-10-10-10-10-10-10-10-10-10-----------------------------------------
E-8--8--8--8--8--8--8--8--8--8--8--8------------------------------------------

shine up my old brown shoes...
e-------3--2--1--0--3--2--1~--0-------------
B-------------------------------------------
G-------------------------------------------
D-------------------------------------------
A-------------------------------------------
E-------------------------------------------

didn't i, didn't i, did'nt i see u crying...

e----------------------------------------------------------------------
B----------------------------------------------------------------------
G-------------------------------------------10-10-10-10-10-10-10-10----
D-10-10-10-10-10-10-10-10-55555555-77777777-10-10-10-10-10-10-10-10----
A-10-10-10-10-10-10-10-10-55555555-77777777-8--8--8--8--8--8--8--8-----
E-8--8--8--8--8--8--8--8--33333333-55555555----------------------------

e----------------------------------------------------------------------
B----------------------------------------------------------------------
G-------------------------------------------10-10-10-10-10-10-10-10----
D-10-10-10-10-10-10-10-10-55555555-77777777-10-10-10-10-10-10-10-10----
A-10-10-10-10-10-10-10-10-55555555-77777777-8--8--8--8--8--8--8--8-----
E-8--8--8--8--8--8--8--8--33333333-55555555----------------------------

i havn't quite got the solo bit worked out yet

after the slow part
e----------------------------------------------------
B----------------------------------------------------
G---5s9~--9--9--7--5~--7--9~--9--7~--7--5~-----------
D----------------------------------------------------
A----------------------------------------------------
Comments