Cheap Sex - Launch Off To War Chords & Tabs

 

Launch Off To War Chords & Tabs

Cheap Sex Chords & Tabs

Version: 1 Type: Tab 0 ratings
1 star 2 stars 3 stars 4 stars 5 stars
comments

Launch Off To War Tab

   
  INTRO    (MOSTLY PLAYED ON BASS)
  
E   ---------------------------------------------------------------
B   --2-0-2-0-2-0-2-0-2-0-2-0-2-0-2-0-2-0-2-0-2--------------------
G   ---------------------------------------------------------------
D   ---------------------------------------------------------------
A   ---------------------------------------------------------------
E   ---------------------------------------------------------------


   VERSE
[ Tab from: http://www.guitartabs.cc/tabs/c/cheap_sex/launch_off_to_war_tab.html ]
      C#      G#      A           (high) E       B    C# 
E   ---------------------------------------------------------------
B   --------------------------------------------------------------- 
G   -6-6-------------7-7--------------9-9-------------6-6----------
D   -6-6------6------7-7--------------9-9--------9----6-6----------
A   -4-4------6------5-5--------------7-7--------9----4-4----------
E   ----------4----------------------------------7-----------------


   CHORUS  (launch of to war..what the fuck are we fighting for..)

        C#           B             (high) E            G#
E   ---------------------------------------------------------------
B   ---------------------------------------------------------------
G   --6-6-6-6------4-4-4-4-------9-9-9-9------------6-6-6-6--------
D   --6-6-6-6------4-4-4-4-------9-9-9-9------------6-6-6-6--------
A   --4-4-4-4------2-2-2-2-------7-7-7-7------------4-4-4-4--------
E   ---------------------------------------------------------------




   THATS THE CHORDS.. ITS A REALY EASY SONG SO YOU SHOULD BE ABLE 
   TO LOOK AT THE CHORDS AND FIGURE OUT HOW MANY TIME THEY PLAY EACH 
   VERSE ETC.. 
                          - LOVE UNKLEMEEGS 
Comments