Cheap Sex - If Society Chords & Tabs

 

If Society Chords & Tabs

Cheap Sex Chords & Tabs

Version: 1 Type: Tab 0 ratings
1 star 2 stars 3 stars 4 stars 5 stars
comments

If Society Tab

IF SOCIETY...   by Cheap Sex
From the album "launch off to war"
Tabbed by Jake Strange. Email: scumfuc_69@yahoo.com

This TAB is kinda sloppy, but it's all here.
[ Tab from: http://www.guitartabs.cc/tabs/c/cheap_sex/if_society_tab.html ]
INTRO:
G|---------------------------------------------------------------|
D|---------------------------------------------------------------| (bass)
A|--7-7-7-0-7-7-7--0-3-3-3-0-3-3-3-------------------333-22-0000-|
E|----------------------------------0-3-3-3-0-3-3-3-0------------|
 ||                                                              |
e|---------------------------------------------------------------|
B|---------------------------------------------------------------|
G|--9--------------5---------------------------------5---4--2--2-|
D|--9--------------5----------------5----------------5---4--2--2-| (guitar)
A|--7--------------3----------------5----------------3---2--0--0-|
E|----------------------------------3----------------------------|
 ||                                                              ||
e|---------------------------------------------------------------|
B|---------------------------------------------------8--7-----7--|
G|--7h9----------7h9--------------7h9----------------------9-----| (solo)
D|---------------------------------------------------------------|
A|---------------------------------------------------------------|
E|---------------------------------------------------------------|

Play the part above 2x. The play verse riff with the solo tabbed
below before the verse.
e|-----------------------||------------12----12--12----12-------------|
B|------------------8-7--||--8-7-8-10-----10-----10-10-10--8-7---7----|
G|--7h9-7h9-7h9-7h9------||------------------------------------9---9--|
D|-----------------------||-------------------------------------------|
A|-----------------------||-------------------------------------------|
E|-----------------------||-------------------------------------------|
          (I think you the 1st measure 3x)

Verses:
e|----------------------------------------------|
B|----------------------------------------------|
G|--99999999-55555555555------------------------|
D|--99999999-55555555555-5555555555--10--9--77--|
A|--77777777-33333333333-5555555555--10--9--77--|
E|-----------------------3333333333---8--7--55--|

Chorus:
e|----------------------------------------------|
B|----------------------------------------------|
G|--7777--------------------------10--9---------|
D|--7777--7777--9999--10101010----10--9---------|
A|--5555--7777--9999--10101010-----8--7---------|
E|--------5555--7777---8-8-8-8------------------|

There's a solo at the end, too, but I don't know it.
Send any corrections to me and I will add them & give
credit to whoever sends them.
Comments