Cheap Sex - False Pride Chords & Tabs

 

False Pride Chords & Tabs

Cheap Sex Chords & Tabs

Version: 1 Type: Tab 0 ratings
1 star 2 stars 3 stars 4 stars 5 stars
comments

False Pride Tab

   
-----------------------------------------------------------------
FALSE PRIDE - Cheap Sex
-----------------------------------------------------------------
Tabbed by: DumbKids
Album: Headed For A Breakdown
Tuning: Standard


|Intro:|

Guitar 1:
e|-5-5-5---------------------------5-5-5-------------5-5-5-5-5-5-|
B|-6-6-6---------------------------6-6-6-------------6-6-6-6-6-6-|
G|-7-7-7---------------------------7-7-7-------------7-7-7-7-7-7-|
D|-7-7-7-7-7-7-7-7-7-7-7-7-7-7-7-7-7-7-7-7-7-7-7-7-7-7-7-7-7-7-7-|
A|-5-5-5-5-5-5-5-5-5-5-5-5-5-5-5-5-5-5-5-5-5-5-5-5-5-5-5-5-5-5-5-|
E|---------------------------------------------------------------|
pm       . . . . . . . . . . . . .       . . . . . .

e|-1---------------------------1-1-1-------------------------|
B|-3---------------------------1-1-1-------------------------|
G|-3---------------------------3-3-3-------------5-5-5-5-5-5-|
D|-3-3-3-3-3-3-3-3-3-3-3-3-3-3-3-3-3-3-3-3-3-3-3-5-5-5-5-5-5-|
A|-1-1-1-1-1-1-1-1-1-1-1-1-1-1-1-1-1-1-1-1-1-1-1-3-3-3-3-3-3-|
E|-----------------------------------------------------------|
pm   . . . . . . . . . . . . .       . . . . . .

e|-5-5-5---------------------------5-5-5-------------5-5-5-5-5-5-|
B|-6-6-6---------------------------6-6-6-------------6-6-6-6-6-6-|
G|-7-7-7---------------------------7-7-7-------------7-7-7-7-7-7-|
D|-7-7-7-7-7-7-7-7-7-7-7-7-7-7-7-7-7-7-7-7-7-7-7-7-7-7-7-7-7-7-7-|
A|-5-5-5-5-5-5-5-5-5-5-5-5-5-5-5-5-5-5-5-5-5-5-5-5-5-5-5-5-5-5-5-|
E|---------------------------------------------------------------|
pm       . . . . . . . . . . . . .       . . . . . .

e|-1---------------------------1-1-1-------------------------|
B|-3---------------------------1-1-1-------------------------|
G|-3---------------------------3-3-3-------------5-5-5-5-5-5-|
D|-3-3-3-3-3-3-3-3-3-3-3-3-3-3-3-3-3-3-3-3-3-3-3-5-5-5-5-5-5-|
A|-1-1-1-1-1-1-1-1-1-1-1-1-1-1-1-1-1-1-1-1-1-1-1-3-3-3-3-3-3-|
E|-----------------------------------------------------------|
pm   . . . . . . . . . . . . .       . . . . . .

e|-5*------------------------------5*----------------5-5-5-5-5-5-|
B|-6*------------------------------6*----------------6-6-6-6-6-6-|
G|-7*------------------------------7*----------------7-7-7-7-7-7-|
D|-7*------------------------------7*----------------7-7-7-7-7-7-|
A|-5*------------------------------5*----------------5-5-5-5-5-5-|
E|---------------------------------------------------------------|

e|-1---------------------------1-1-1-----------------------------|
B|-3---------------------------1-1-1-----------------------------|
G|-3---------------------------3-3-3-------------5-5-5-5-5-5--7*-|
D|-3-3-3-3-3-3-3-3-3-3-3-3-3-3-3-3-3-3-3-3-3-3-3-5-5-5-5-5-5--7*-|
A|-1-1-1-1-1-1-1-1-1-1-1-1-1-1-1-1-1-1-1-1-1-1-1-3-3-3-3-3-3--5*-|
E|---------------------------------------------------------------|
pm   . . . . . . . . . . . . .       . . . . . .

Guitar 2:
e|---------------------------------------------------------------|
B|---------------------------------------------------------------|
G|---------------------------------------------------------------|x2
D|--(rest)-------------------------------------------------------|
A|---------------------------------------------------------------|
E|---------------------------------------------------------------|

e|-5-5-5---------------------------5-5-5-------------5-5-5-5-5-5-|
B|-6-6-6---------------------------6-6-6-------------6-6-6-6-6-6-|
G|-7-7-7---------------------------7-7-7-------------7-7-7-7-7-7-|
D|-7-7-7-7-7-7-7-7-7-7-7-7-7-7-7-7-7-7-7-7-7-7-7-7-7-7-7-7-7-7-7-|
A|-5-5-5-5-5-5-5-5-5-5-5-5-5-5-5-5-5-5-5-5-5-5-5-5-5-5-5-5-5-5-5-|
E|---------------------------------------------------------------|
pm       . . . . . . . . . . . . .       . . . . . .

e|-1---------------------------------------------------------|
B|-3---------------------------------------------------------|
G|-3---------------------------------------------5-5-5-5-5-5-|
D|-3-3-3-3-3-3-3-3-3-3-3-3-3-3-3-3-3-3-3-3-3-3-3-5-5-5-5-5-5-|
A|-1-1-1-1-1-1-1-1-1-1-1-1-1-1-1-1-1-1-1-1-1-1-1-3-3-3-3-3-3-|
E|-----------------------------------------------------------|
pm   . . . . . . . . . . . . . . . . . . . . . .

e|-5-5-5---------------------------5-5-5-------------5-5-5-5-5-5-|
B|-6-6-6---------------------------6-6-6-------------6-6-6-6-6-6-|
G|-7-7-7---------------------------7-7-7-------------7-7-7-7-7-7-|
D|-7-7-7-7-7-7-7-7-7-7-7-7-7-7-7-7-7-7-7-7-7-7-7-7-7-7-7-7-7-7-7-|
A|-5-5-5-5-5-5-5-5-5-5-5-5-5-5-5-5-5-5-5-5-5-5-5-5-5-5-5-5-5-5-5-|
E|---------------------------------------------------------------|
pm       . . . . . . . . . . . . .       . . . . . .

e|-1---------------------------------------------------------|
B|-3---------------------------------------------------------|
G|-3---------------------------------------------5-5-5-5-5-5-|
D|-3-3-3-3-3-3-3-3-3-3-3-3-3-3-3-3-3-3-3-3-3-3-3-5-5-5-5-5-5-|
A|-1-1-1-1-1-1-1-1-1-1-1-1-1-1-1-1-1-1-1-1-1-1-1-3-3-3-3-3-3-|
E|-----------------------------------------------------------|
pm   . . . . . . . . . . . . . . . . . . . . . .


|Verse:|

Guitar 1:
e|---------------------------------------------------------------|
B|---------------------------------------------------------------|
G|---------------------------------------------------------------|
D|--(rest)-------------------------------------------------------|
A|---------------------------------------------------------------|
E|---------------------------------------------------------------|

e|------------------------------------------------------------------------|
B|------------------------------------------------------------------------|
G|-7-7-777---------8-8-888---------10-10-101010-5-5-5-5-------------------|x3
D|-7-7-777-5-5-5-5-8-8-888-5-5-5-5-10-10-101010-5-5-5-5-------7-7-7-7-7-7-|
A|-5-5-555-5-5-5-5-6-6-666-5-5-5-5--8--8--8-8-8-3-3-3-3-8-8-8-7-7-7-7-7-7-|
E|---------3-3-3-3---------3-3-3-3----------------------6-6-6-5-5-5-5-5-5-|
pm                                                      . . .

Guitar 2:
e|------------------------------------------------------------------------|
B|------------------------------------------------------------------------|
G|------------------------------------------------------------------------|x4
D|-7-7-777-5-5-5-5-8-8-888-5-5-5-5-10-10-101010-5-5-5-5-------7-7-7-7-7-7-|
A|-5-5-555-5-5-5-5-6-6-666-5-5-5-5--8--8--8-8-8-3-3-3-3-8-8-8-7-7-7-7-7-7-|
E|-5-5-555-3-3-3-3-6-6-666-3-3-3-3--8--8--8-8-8-3-3-3-3-6-6-6-5-5-5-5-5-5-|
pm                                                      . . .

|Chorus:|

Guitar 1:
e|---------------------------------------------------------------------|
B|---------------------------------------------------------------------|
G|---------------------------------7-7-7-7-7-7-7-7---------10-10-10-10-|
D|-8-8-8-8-8-8-8-8-7-7-7-7-7-7-7-7-7-7-7-7-7-7-7-7-3-3-3-3--x--x--x--x-|
A|-8-8-8-8-8-8-8-8-7-7-7-7-7-7-7-7-5-5-5-5-5-5-5-5-3-3-3-3--8--8--8--8-|
E|-6-6-6-6-6-6-6-6-5-5-5-5-5-5-5-5-----------------1-1-1-1-------------|

e|-----------------------------------------------------------------|
B|-----------------------------------------------------------------|
G|---------------------------------7-7-7-7-7-7-7-7-----------------|
D|-8-8-8-8-8-8-8-8-7-7-7-7-7-7-7-7-7-7-7-7-7-7-7-7-3-3-3-3-3-3-3-3-|
A|-8-8-8-8-8-8-8-8-7-7-7-7-7-7-7-7-5-5-5-5-5-5-5-5-3-3-3-3-3-3-3-3-|
E|-6-6-6-6-6-6-6-6-5-5-5-5-5-5-5-5-----------------1-1-1-1-1-1-1-1-|

e|------------------------------------------------------------|
B|------------------------------------------------------------|
G|---------------------------------7*-------------------------|
D|-8-8-8-8-8-8-8-8-7-7-7-7-7-7-7-7-7*-------------------------|
A|-8-8-8-8-8-8-8-8-7-7-7-7-7-7-7-7-5*-------------------------|
E|-6-6-6-6-6-6-6-6-5-5-5-5-5-5-5-5--------------\\pickslide\\-|

Guitar 2:
e|---------------------------------------------------------------------|
B|---------------------------------------------------------------------|
G|---------------------------------7-7-7-7-7-7-7-7---------10-10-10-10-|
D|-8-8-8-8-8-8-8-8-7-7-7-7-7-7-7-7-7-7-7-7-7-7-7-7-3-3-3-3--x--x--x--x-|
A|-8-8-8-8-8-8-8-8-7-7-7-7-7-7-7-7-5-5-5-5-5-5-5-5-3-3-3-3--8--8--8--8-|
E|-6-6-6-6-6-6-6-6-5-5-5-5-5-5-5-5-----------------1-1-1-1-------------|

e|-----------------------------------------------------------------------|
B|-----------------------------------------------------------------------|
G|---------5-7-7-6-6-6-6-7-9-9-10-10-10-10-9-7-7-10-10-10-10-14-14-14-14-|
D|-8-8-8-8-x-x-x-x-x-x-x-x-x-x--x--x--x--x-x-x-x--x--x--x--x--x--x--x--x-|
A|-x-x-x-x-3-5-5-4-4-4-4-5-7-7--8--8--8--8-7-5-5--8--8--8--8-12-12-12-12-|
E|-6-6-6-6---------------------------------------------------------------|

e|------------------------------------------------------------|
B|------------------------------------------------------------|
G|---------------------------------7*-------------------------|
D|-8-8-8-8-8-8-8-8-7-7-7-7-7-7-7-7-7*-------------------------|
A|-8-8-8-8-8-8-8-8-7-7-7-7-7-7-7-7-5*-------------------------|
E|-6-6-6-6-6-6-6-6-5-5-5-5-5-5-5-5--------------\\pickslide\\-|

|Verse:|
[ Tab from: http://www.guitartabs.cc/tabs/c/cheap_sex/false_pride_tab.html ]
Guitar 1:
e|------------------------------------------------------------------------|
B|------------------------------------------------------------------------|
G|-7-7-777---------8-8-888---------10-10-101010-5-5-5-5-------------------|x3
D|-7-7-777-5-5-5-5-8-8-888-5-5-5-5-10-10-101010-5-5-5-5-------7-7-7-7-7-7-|
A|-5-5-555-5-5-5-5-6-6-666-5-5-5-5--8--8--8-8-8-3-3-3-3-8-8-8-7-7-7-7-7-7-|
E|---------3-3-3-3---------3-3-3-3----------------------6-6-6-5-5-5-5-5-5-|
pm                                                      . . .

Guitar 2:
e|------------------------------------------------------------------------|
B|------------------------------------------------------------------------|
G|------------------------------------------------------------------------|x3
D|-7-7-777-5-5-5-5-8-8-888-5-5-5-5-10-10-101010-5-5-5-5-------7-7-7-7-7-7-|
A|-5-5-555-5-5-5-5-6-6-666-5-5-5-5--8--8--8-8-8-3-3-3-3-8-8-8-7-7-7-7-7-7-|
E|-5-5-555-3-3-3-3-6-6-666-3-3-3-3--8--8--8-8-8-3-3-3-3-6-6-6-5-5-5-5-5-5-|
pm                                                      . . .

|Chorus:|

Guitar 1:
e|---------------------------------------------------------------------|
B|---------------------------------------------------------------------|
G|---------------------------------7-7-7-7-7-7-7-7---------10-10-10-10-|
D|-8-8-8-8-8-8-8-8-7-7-7-7-7-7-7-7-7-7-7-7-7-7-7-7-3-3-3-3--x--x--x--x-|
A|-8-8-8-8-8-8-8-8-7-7-7-7-7-7-7-7-5-5-5-5-5-5-5-5-3-3-3-3--8--8--8--8-|
E|-6-6-6-6-6-6-6-6-5-5-5-5-5-5-5-5-----------------1-1-1-1-------------|

e|-----------------------------------------------------------------|
B|-----------------------------------------------------------------|
G|---------------------------------7-7-7-7-7-7-7-7-----------------|
D|-8-8-8-8-8-8-8-8-7-7-7-7-7-7-7-7-7-7-7-7-7-7-7-7-3-3-3-3-3-3-3-3-|
A|-8-8-8-8-8-8-8-8-7-7-7-7-7-7-7-7-5-5-5-5-5-5-5-5-3-3-3-3-3-3-3-3-|
E|-6-6-6-6-6-6-6-6-5-5-5-5-5-5-5-5-----------------1-1-1-1-1-1-1-1-|

e|---------------------------------|
B|---------------------------------|
G|---------------------------------|
D|-8-8-8-8-8-8-8-8-7-7-7-7-7-7-7-7-|
A|-8-8-8-8-8-8-8-8-7-7-7-7-7-7-7-7-|
E|-6-6-6-6-6-6-6-6-5-5-5-5-5-5-5-5-|

Guitar 2:
e|---------------------------------------------------------------------|
B|---------------------------------------------------------------------|
G|---------------------------------7-7-7-7-7-7-7-7---------10-10-10-10-|
D|-8-8-8-8-8-8-8-8-7-7-7-7-7-7-7-7-7-7-7-7-7-7-7-7-3-3-3-3--x--x--x--x-|
A|-8-8-8-8-8-8-8-8-7-7-7-7-7-7-7-7-5-5-5-5-5-5-5-5-3-3-3-3--8--8--8--8-|
E|-6-6-6-6-6-6-6-6-5-5-5-5-5-5-5-5-----------------1-1-1-1-------------|

e|-----------------------------------------------------------------------|
B|-----------------------------------------------------------------------|
G|---------5-7-7-6-6-6-6-7-9-9-10-10-10-10-9-7-7-10-10-10-10-14-14-14-14-|
D|-8-8-8-8-x-x-x-x-x-x-x-x-x-x--x--x--x--x-x-x-x--x--x--x--x--x--x--x--x-|
A|-x-x-x-x-3-5-5-4-4-4-4-5-7-7--8--8--8--8-7-5-5--8--8--8--8-12-12-12-12-|
E|-6-6-6-6---------------------------------------------------------------|

e|------------------------------------|
B|------------------------------------|
G|---------------------------------7*-|
D|-8-8-8-8-8-8-8-8-7-7-7-7-7-7-7-7-7*-|
A|-8-8-8-8-8-8-8-8-7-7-7-7-7-7-7-7-5*-|
E|-6-6-6-6-6-6-6-6-5-5-5-5-5-5-5-5----|

|Bridge:|

Guitar 1:
e|---------------------------------------------------------|
B|---------------------------------------------------------|
G|-0*-----0*-----0*------0*-----0*-----0*-----0*------0*---|
D|---7*-----8*-----10*-----7*-----7*-----8*-----10*-----7*-|
A|---------------------------------------------------------|
E|---------------------------------------------------------|

e|----------------------------------------------------------|
B|----------------------------------------------------------|
G|-0*-----0*----0*-------0*-----0*-----0*-----0*------0*----|
D|---7*-----8*-----10*-----7*-----7*-----8*-----10*-----12*-|
A|----------------------------------------------------------|
E|----------------------------------------------------------|

Guitar 2:
e|---------------------------------------------------------------|
B|---------------------------------------------------------------|
G|---------------------------------------------------------------|
D|--(rest)-------------------------------------------------------|
A|---------------------------------------------------------------|
E|---------------------------------------------------------------|

e|----------------------------------------------------------|
B|----------------------------------------------------------|
G|-0*-----0*----0*-------0*-----0*-----0*-----0*------0*----|
D|---7*-----8*-----10*-----7*-----7*-----8*-----10*-----12*-|
A|----------------------------------------------------------|
E|----------------------------------------------------------|

|Solo:|

Guitar 1:
e|-3/10-10-10101010------------11-11-11111111-----------|
B|-3/10-10-10101010-8-99-1010--11-11-11111111-8-99-1010-|
G|------------------------------------------------------|
D|------------------------------------------------------|
A|------------------------------------------------------|
E|------------------------------------------------------|

e|-13-13-13-0-13*-----0-13p11----------------------|
B|-13-13-13-0-16b18*--0-------11-16p11-16-14b15r14-|
G|-------------------------------------------------|
D|-------------------------------------------------|
A|-------------------------------------------------|
E|-------------------------------------------------|

e|-3/10-10-10101010------------11-11-11111111-----------|
B|-3/10-10-10101010-8-99-1010--11-11-11111111-8-99-1010-|
G|------------------------------------------------------|
D|------------------------------------------------------|
A|------------------------------------------------------|
E|------------------------------------------------------|

e|-13-13-13-0-13*-----0-13p11----------------------|
B|-13-13-13-0-16b18*--0-------11-16p11-16-14b15r14-|
G|-------------------------------------------------|
D|-------------------------------------------------|
A|-------------------------------------------------|
E|-------------------------------------------------|

Guitar 2:
e|------------------------------------------------------------------------|
B|------------------------------------------------------------------------|
G|------------------------------------------------------------------------|x2
D|-7-7-777-5-5-5-5-8-8-888-5-5-5-5-10-10-101010-5-5-5-5-------7-7-7-7-7-7-|
A|-5-5-555-5-5-5-5-6-6-666-5-5-5-5--8--8--8-8-8-3-3-3-3-8-8-8-7-7-7-7-7-7-|
E|-5-5-555-3-3-3-3-6-6-666-3-3-3-3--8--8--8-8-8-3-3-3-3-6-6-6-5-5-5-5-5-5-|
pm                                                      . . .

|Chorus:|

Guitar 1:
e|---------------------------------------------------------------------|
B|---------------------------------------------------------------------|
G|---------------------------------7-7-7-7-7-7-7-7---------10-10-10-10-|
D|-8-8-8-8-8-8-8-8-7-7-7-7-7-7-7-7-7-7-7-7-7-7-7-7-3-3-3-3--x--x--x--x-|
A|-8-8-8-8-8-8-8-8-7-7-7-7-7-7-7-7-5-5-5-5-5-5-5-5-3-3-3-3--8--8--8--8-|
E|-6-6-6-6-6-6-6-6-5-5-5-5-5-5-5-5-----------------1-1-1-1-------------|

e|-----------------------------------------------------------------|
B|-----------------------------------------------------------------|
G|---------------------------------7-7-7-7-7-7-7-7-----------------|
D|-8-8-8-8-8-8-8-8-7-7-7-7-7-7-7-7-7-7-7-7-7-7-7-7-3-3-3-3-3-3-3-3-|
A|-8-8-8-8-8-8-8-8-7-7-7-7-7-7-7-7-5-5-5-5-5-5-5-5-3-3-3-3-3-3-3-3-|
E|-6-6-6-6-6-6-6-6-5-5-5-5-5-5-5-5-----------------1-1-1-1-1-1-1-1-|

e|------------------------------------------------|
B|------------------------------------------------|
G|---------------------------------7--7--7--7--7*-|
D|-8-8-8-8-8-8-8-8-7-7-7-7-7-7-7-7-7--7--7--7--7*-|
A|-8-8-8-8-8-8-8-8-7-7-7-7-7-7-7-7-5--5--5--5--5*-|
E|-6-6-6-6-6-6-6-6-5-5-5-5-5-5-5-5----------------|

Guitar 2:
e|---------------------------------------------------------------------|
B|---------------------------------------------------------------------|
G|---------------------------------7-7-7-7-7-7-7-7---------10-10-10-10-|
D|-8-8-8-8-8-8-8-8-7-7-7-7-7-7-7-7-7-7-7-7-7-7-7-7-3-3-3-3--x--x--x--x-|
A|-8-8-8-8-8-8-8-8-7-7-7-7-7-7-7-7-5-5-5-5-5-5-5-5-3-3-3-3--8--8--8--8-|
E|-6-6-6-6-6-6-6-6-5-5-5-5-5-5-5-5-----------------1-1-1-1-------------|

e|-----------------------------------------------------------------------|
B|-----------------------------------------------------------------------|
G|---------5-7-7-6-6-6-6-7-9-9-10-10-10-10-9-7-7-10-10-10-10-14-14-14-14-|
D|-8-8-8-8-x-x-x-x-x-x-x-x-x-x--x--x--x--x-x-x-x--x--x--x--x--x--x--x--x-|
A|-x-x-x-x-3-5-5-4-4-4-4-5-7-7--8--8--8--8-7-5-5--8--8--8--8-12-12-12-12-|
E|-6-6-6-6---------------------------------------------------------------|

e|------------------------------------------------|
B|------------------------------------------------|
G|---------------------------------7--7--7--7--7*-|
D|-8-8-8-8-8-8-8-8-7-7-7-7-7-7-7-7-7--7--7--7--7*-|
A|-8-8-8-8-8-8-8-8-7-7-7-7-7-7-7-7-5--5--5--5--5*-|
E|-6-6-6-6-6-6-6-6-5-5-5-5-5-5-5-5----------------|


Key:
| / slide up
| \ slide down
| p pull-off
| b bend
| r release bend
| * let ring
| . palm mute
Comments