Cheap Sex - Dick Cheney Chords & Tabs

 

Dick Cheney Chords & Tabs

Cheap Sex Chords & Tabs

Version: 2 Type: Tab 0 ratings
1 star 2 stars 3 stars 4 stars 5 stars
comments

Dick Cheney Tab

Cheap Sex - Dick Cheney
Album: Launch Off to War

Beat the fucking bastard! 

Intro: 
E|--2----5---4---2-----------------|
B|--2----5---4---2-----------------|
G|--4b---7b-6b-4b----------------|
D|---------------------------------|
A|---------------------------------|
E|---------------------------------|

Verse:
e|-----------------------------------------------------|
B|-----------------------------------------------------|
G|----------------------------55555-66666-55555-88888--| PLAY FOUR TIMES
D|--333333333--66666--55555---55555-66666-55555-88888--|
A|--333333333--66666--55555---33333-44444-33333-66666--|
E|--111111111--44444--33333----------------------------|

Chorus:
e|----------------------------------------|
B|----------------------------------------|
G|-----------------------1010-99-1010-99--| PLAY FOUR TIMES
D|-88888888-9-1010101010-1010-99-1010-99--|
A|-88888888-9-1010101010--8-8-77--8-8-77--|
E|-66666666-7--8-8-8-8-8------------------|
[ Tab from: http://www.guitartabs.cc/tabs/c/cheap_sex/dick_cheney_tab_ver_2.html ]
E|--2----5---4---2------------------|
B|--2----5---4---2------------------|
G|--4b---7b-6b-4b-----------------|
D|----------------------------------|
A|----------------------------------|
E|----------------------------------|

e|-----------------------------------------------------|
B|-----------------------------------------------------|
G|----------------------------55555-66666-55555-88888--| PLAY FOUR TIMES
D|--333333333--66666--55555---55555-66666-55555-88888--|
A|--333333333--66666--55555---33333-44444-33333-66666--|
E|--111111111--44444--33333----------------------------|

e|----------------------------------------|
B|----------------------------------------|
G|-----------------------1010-99-1010-99--| PLAY FOUR TIMES
D|-88888888-9-1010101010-1010-99-1010-99--|
A|-88888888-9-1010101010--8-8-77--8-8-77--|
E|-66666666-7--8-8-8-8-8------------------|

End with:
e|--------------------------------------|
B|--------------------------------------|
G|--1010-99-1010-99-1010-99-1010-99-10--|
D|--1010-99-1010-99-1010-771010-77-10--|
A|---8-8-77--8-8-77--8-8-77--8-8-77--8--|
E|--------------------------------------|
Comments