Charlie Daniels Band - Dueling Banjos Chords & Tabs

 

Dueling Banjos Chords & Tabs

Charlie Daniels Band Chords & Tabs

Version: 1 Type: Tab 0 ratings
1 star 2 stars 3 stars 4 stars 5 stars
comments

Dueling Banjos Tab

DUELING BANJOS by Charlie Daniels band

The key for this song is A 

I'm 15 and this is my first tab, i was disappointed with most other tabs
on here so made my own, this is correct! i hope :P

  Guitar (chords)=                              banjo (tab) 
                                (Don't know what these chords are called) =  

   A,A,D,A                               E -9--9--9---14--9--
                                         B -11-11-11--15--11-
                                         G -9--9--9---14--9--
                                         D ------------------


Guitar                             Banjo                    X2 
E --------------------------------9-10-12-9-10-----9------------
B -2-3-5-2-3--2----2----------------------------12---10-12------
G ---------------4---2-4----------------------------------------
D --------------------------------------------------------------
A --------------------------------------------------------------
E --------------------------------------------------------------

The first guitar 
bit could 
also be played 
in this position!

E --------------------------
B --------------------------
G ---6-7--9-6-7-----6-------
D ---------------9-----7--9-
A --------------------------
E --------------------------



      Guitar                        Banjo
E ---------------------------------------8----8-------------
B ---------------------------------9-9-11---9---11----------
G -------------------------------8--------------------------
D ----------------------------------------------------------
A ---7-7-9--11-7--11--9-------------------------------------
E -7--------------------------------------------------------
[ Tab from: http://www.guitartabs.cc/tabs/c/charlie_daniels_band/dueling_banjos_tab.html ]
        Guitar                         Banjo           X2
E ---------------------------------------8-9-11-9-8---------
B -------------------------------9-9-9-11-------------------
G ----------------------------------------------------------
D ----------------------------------------------------------
A ---------2-4-5-2-5-4--------------------------------------
E -5-5-5----------------------------------------------------

        Guitar                         Banjo
E --------------------------------9-9-9-11-13-15-16-14-13---
B ----------------------------------------------------------
G ----------------------------------------------------------
D ---------2-4-5-2-5-4--------------------------------------
A -5-5-5----------------------------------------------------
E ----------------------------------------------------------

        Guitar                         Banjo
E ---------------------------------------8-9-11-9-8----------
B -------------------------------9-9-9-11--------------------
G -----------------------------------------------------------
D -----------------------------------------------------------
A ---------2-4-5-2-5-4---------------------------------------
E -5-5-5-----------------------------------------------------


        Guitar                         Banjo
E -------------------------------12-12-12-14-16-17-19-17-16-
B ----------------------------------------------------------
G ---------------6------------------------------------------
D --------6--8-9---9--8-------------------------------------
A --9-9-9---------------------------------------------------
E ----------------------------------------------------------

The rest is a,a,a,d,a (like the beginning)
The banjo part: The same as the beginning aswell


And i think the fast bit at the end is:

A, A, A, F, F, F, D, D, D -------- have a mess around and see! 


      Guitar                         
E -------------------------------------
B -----------2-----2-----2-------------
G ----2--4------2-----2------4---------
D --2----------------------------------
A -------------------------------------
E -------------------------------------


And i think the fast bit at the end is:

A, A, A, F, F, F, D, D, D -------- have a mess around and see!
Comments