Charlie Christian - Grand Slam Chords & Tabs

 

Grand Slam Chords & Tabs

Charlie Christian Chords & Tabs

Version: 1 Type: Tab 0 ratings
1 star 2 stars 3 stars 4 stars 5 stars
comments

Grand Slam Tab

Charlie Christian
Grand Slam


KEY:
Xs down the bar:     long pause
X:                   short pause
#):                  hold
h:   		     hammer on
\:                   slide

e:–-X-------------1----4----1----3----1----------------------------------------------------------------X-
B:–-X---1----3-----------------------------3----1------------------1-----------------------------------X-
G:--X------------------------------------------------3----1----2--------3----2-------------------2-----X-
D:--X-----------------------------------------------------------------------------3----0----3----------X-
A:--X--------------------------------------------------------------------------------------------------X-
E:--X--------------------------------------------------------------------------------------------------X-

e:–-X------------------3----1----3----1------------------------------------------------1----(1)---------------
B:–-X-------------1------------------------3----1----3----1-----------------------1--------------3------------
G:--X---1----3-------------------------------------------------3---(3)----1h-2--------------------------------
D:–-X------------------------------------------------------------------------------------------------3--X--3--
A:–-X---------------------------------------------------------------------------------------------------------
E:–-X---------------------------------------------------------------------------------------------------------

e:–-X-----------------------------------------------------------------------------------------------
B:--X-------------------------------------------1---------------------------------------------------
G:--X-------2----3----5----3----(3)----1----2--------3----2-----------------------------------------
D:--X---3------------------------------------------------------3----0----3----3----X----3----(3)----
A:--X-----------------------------------------------------------------------------------------------
E:–-X-----------------------------------------------------------------------------------------------
[ Tab from: http://www.guitartabs.cc/tabs/c/charlie_christian/grand_slam_tab.html ]
e:------------------------------------------------------------------------------------X—-X----------
B:--------------------------------------10----------11----------12----------13---10---X--X---10--8--
G:--X--10--X--10--X--10--X--10--X----10----10----10----10----10----10----10-----------X--X----------
D:--------------------------------12----------12----------12----------12--------------X—-X----------
A:------------------------------------------------------------------------------------X--X----------
E:------------------------------------------------------------------------------------X—-X----------

e:----------------10--8---------------------------------------------------------------------8----10----8----10–--X-
B:-----------------------9------------------------------------------------6---8---9---\10------------------------X-
G:--10----9----8-------—---10----7-----------------------------------7-------------------------------------------X-
D:------------------------------------10----9----8----7---------6------------------------------------------------X-
A:---------------------------------------------------------5-----------------------------------------------------X-
E:---------------------------------------------------------------------------------------------------------------X-

e:–-X------------------------------10----10----------------------------------------X------------3----1-------
B:–-X---9---X---9---X---9---------------------X---9--------------------------------X--------1----------------
G:–-X------------------------10------------------------X---10---7------------------X----2--------------------
D:–-X------------------------------------------------------------------10----10----X-------------------------
A:–-X------------------------------------------------------------------------------X-------------------------
E:–-X------------------------------------------------------------------------------X-------------------------

e:----(1)----------------------------------------X--------------------------------------------------------------
B:---------------3----1--------------------------X--------------------------------------------------------------
G:-----------------------------------------------X--------------------------------------------------------------
D:-----------------------------------------------X--------------------------------------------------------------
A:-----------------------------------------------X--------------------------------------------------------------
E:-----------------------------------------------X--------------------------------------------------------------


Comments