Charlie - Guitar Hero Chords & Tabs

 

Guitar Hero Chords & Tabs

Charlie Chords & Tabs

Version: 1 Type: Tab 0 ratings
1 star 2 stars 3 stars 4 stars 5 stars
comments

Guitar Hero Tab

   
Guitar Hero by Charlie from the album No Second Chance

Transcribed by Rob Watson robert.watson14@btinternet.com

Solo 1

  Am                                        F#m

E|--8h10p8-8|7---8p7--|10----|-----------15|----|-14-16-17s19--|
B|----------|--------8|------|-----12-13---|14--|14------------|
G|9---------|---------|---7--|-s14---------|----|--------------|
D|----------|---------|------|-------------|----|--------------|
A|----------|---------|------|-------------|----|--------------|
E|----------|---------|------|-------------|----|--------------|

                         Am                    F#m

E|-19p17p16-16---|------|-----|-----|----|----|--|----------|-------------|-------------|
B|-------------17|------|-----|-----|----|----|--|-5-4-5---4|4-5-4-4-5-5-4|4-5-4---4-5--|
G|---------------|16--16|17s14|16s12|14s9|12s7|6-|-4-4-4---4|4-4-4-4-4-4-4|4-----4------|
D|---------------|------|-----|-----|----|----|--|---------4|4---4-4------|-------------|
A|---------------|------|-----|-----|----|----|--|----------|-------------|-------------|
E|---------------|------|-----|-----|----|----|--|----------|-------------|-------------|

  Am                      Em          A    E    Am

E|-|----|---------|------|-----|-----|----|----|
B|5|----|8-----10s|12--10|8----|-----|10--|12--|
G|-|7-5-|--7s9----|------|-----|--9--|----|----|
D|-|----|---------|------|-----|9----|----|----|
A|-|----|---------|------|-----|-----|----|----|
E|-|----|---------|------|-----|-----|----|----|


 Solo 2

  Am                                                           F#m
[ Tab from: http://www.guitartabs.cc/tabs/c/charlie/guitar_hero_tab.html ]
E|------12-------12|15----|------12-------12|------12----15---|-----|
B|15b17----15b17---|------|15b17----15b17---|15b17----13------|-----|
G|-----------------|---12-|-----------------|---------------12|11---|
D|-----------------|------|-----------------|-----------------|-----|
A|-----------------|------|-----------------|-----------------|-----|
E|-----------------|------|-----------------|-----------------|-----|

                                Am          

E|4h5-4-5-|4-5-7-5-|4-5-5---4-5|(15pb17)r15-12|15----|---------17---------|
B|5---5-5-|5-5-5-5-|5-5-5-5-5-5|--------------|---12-|------17----20-20b22|
G|--------|--------|-----------|--------------|------|19b21---------------|
D|--------|--------|-----------|--------------|------|--------------------|
A|--------|--------|-----------|--------------|------|--------------------|
E|--------|--------|-----------|--------------|------|--------------------|

                             F#m          

E|17h20p17----17h20p17----17|19-14----|----16|14-17-17p14-14-------|
B|---------20----------20---|------14-|------|---------------17b19-|
G|--------------------------|---------|------|---------------------|
D|--------------------------|---------|------|---------------------|
A|--------------------------|---------|------|---------------------|
E|--------------------------|---------|------|---------------------|

                   Am                      F#m      

E|----------------|-----|---7-|------|--7-|-----------------------------|
B|------17--------|8----|7----|8-----|7---|------14-14-------14-14------|
G|16b18----r16-14-|-----|-----|------|----|16b18-------16b18-------16b18|
D|----------------|-----|-----|------|----|-----------------------------|
A|----------------|-----|-----|------|----|-----------------------------|
E|----------------|-----|-----|------|----|-----------------------------|
Comments