Charlie - Dont Look Back Chords & Tabs

 

Dont Look Back Chords & Tabs

Charlie Chords & Tabs

Version: 1 Type: Tab 0 ratings
1 star 2 stars 3 stars 4 stars 5 stars
comments

Dont Look Back Tab

   
Don't Look Back by Charlie
http://www.charlie-music.de/
 Transcribed by Rob Watson robert.watson14@btinternet.com   

E|----------0----------------0------|
B|-7h8------3-------7h8------3------|
G|-7--------2-------7--------2------|
D|-7h9------0-------7h9------0------|
A|----------------------------------|
E|----------------------------------|

  Em Bm             Am      D                  Em D

E|--|-10-----------|-------|------------------|--|------------------|
B|--|----7---------|------7|8-8-8-8-7---------|--|-----7-8-10-10s7h8|
G|--|------7s6--6-7|9----7-|----------7---7-7h|9-|9b11--------------|
D|--|--------------|----7--|------------------|--|------------------|
A|--|--------------|-------|------------------|--|------------------|
E|--|--------------|-------|------------------|--|------------------|

  Em        D                        Em

E|---------|------------------------|----------|
B|7h8p7----|------------------------|----------|
G|---------|9b11r9p7-9-7--9b11r9-7--|----------|
D|---------|------------------------|9---------|
A|---------|------------------------|----------|
E|---------|------------------------|----------|

Em                   C                      Am7/G
      Where are they now, the bold plans of youth?
                  D                 Em
The hopes and the dreams have faded away
        C                       Am7/G
Reality bites the world owes no-one
                  D                     Em
You take what you can from each passing day

           D            C               D           Em
Don't look back,             don't look back - live now

  Em         D                       Em

E|----------|(17pb19)r17-14-15-14-15|17---15s14-12-14---|
B|-----15b17|-----------------------|-----------------15|
G|----------|-----------------------|-------------------|
D|----------|-----------------------|-------------------|
A|----------|-----------------------|-------------------|
E|----------|-----------------------|-------------------|

  D                                                  Em

E|------------------------------12------------------|-----|
B|---------------------------------15-12-------15---|-----|
G|14b16r14b16r14-12----12-14b16----------14b16---r14|12---|
D|------------------14------------------------------|-----|
A|--------------------------------------------------|-----|
E|--------------------------------------------------|-----|

The radio plays the hits you once knew
The day disappears, you drift back in time
Nostalgia's a drug, it colours the past
The bad times forgot, the good times so fine

           D            C               D           Em
Don't look back,             don't look back - live now

  Em          D    Em                         D

E|------14-15|17|(17pb19)r17-14-15-14------|-------------------------------------|
B|17b19------|--|---------------------15---|------12-15-12---12------------------|
G|-----------|--|------------------------14|12b14----------14------------11h12p11|
D|-----------|--|--------------------------|--------------------12-12-14---------|
A|-----------|--|--------------------------|-------------------------------------|
E|-----------|--|--------------------------|-------------------------------------|

  F#m           

E|--12---|-------------|----17-16-14---|-------------------------|
B|-------|---9-10-12s14|14-14--------14|-------------------------|
G|-------|11-----------|---------------|14---13h14p13----13-14-16|
D|-------|-------------|---------------|--------------16---------|
A|-------|-------------|---------------|-------------------------|
E|-------|-------------|---------------|-------------------------|

  Am           
[ Tab from: http://www.guitartabs.cc/tabs/c/charlie/dont_look_back_tab.html ]
E|-------------------|-----------------|------------|-------------------|
B|13---15-12-13------|--------7--------|------------|8-7----------------|
G|--------------14-12|14-11-----7s5---7|7b9r7------5|----7-5-4h5p4---4-5|
D|-------------------|--------------7--|-------7p5--|--------------7----|
A|-------------------|-----------------|------------|-------------------|
E|-------------------|-----------------|------------|-------------------|

  F#m           

E|--7s5-4---4-----|-------------4--|-------------|-----------------|
B|--------5---5---|----------------|--------7b9--|5---5-7--7-5---7s|
G|6-------------4-|-1h2p1---1-2---1|2-1---------6|--6----------6---|
D|----------------|-------4--------|----2s4------|-----------------|
A|----------------|----------------|-------------|-----------------|
E|----------------|----------------|-------------|-----------------|

  Am           

E|--------|-------12----15------|------------------|
B|8---7h8-|-15b17----13---------|----------15p12---|
G|----7---|----------------12-12|14b16r14--------14|
D|--------|---------------------|------------------|
A|--------|---------------------|------------------|
E|--------|---------------------|------------------|

  Am                             Cmaj7         Bm

E|----------15-------15-15------|-----(12b14)r|12-10---------| 
B|12--12s13----12s13-------12s13|12-----------|------12-10-12| 
G|------------------------------|-------------|--------------| 
D|------------------------------|-------------|--------------| 
A|------------------------------|-------------|--------------| 
E|------------------------------|-------------|--------------| 

  C                 D                            Em  

E|12b14-12-(14pb15)|r14--------15-14----------12|----------------12------|
B|-----------------|----15--17-------17-15------|15b17--------12----15-15|
G|-----------------|-----------------------14---|-------14b16------------|
D|-----------------|----------------------------|------------------------|
A|-----------------|----------------------------|------------------------|
E|-----------------|----------------------------|------------------------|

  D               Em                                   D                           

E|12-12----------|------------------------------------|----------------------------|
B|---------------|------------------------------------|----------------------------|
G|------14b16r14-|14b16r14-12-14-12-----------------12|11-11h12p11------14b16-12---|
D|---------------|------------------14--------12-14---|------------12------------14|
A|---------------|----------------------12s14---------|---------------12-----------|
E|---------------|------------------------------------|----------------------------|

You're trapped by your past held fast in its grip
Memories shut out the things you should say
What might have once been can be realised
So open your eyes and let in today

           D            C               D           Em
Don't look back,             don't look back - live now

  Em     D                Em           

E|17b19|-14-15-14-------|-------------------12------------------12h15p12----12-----|
B|-----|----------15----|----------------------15-(15b17)r15b17----------12--------|
G|-----|-------------14-|14b16r14-12--14b16-----------------------------------14b16|
D|-----|----------------|----------------------------------------------------------|
A|-----|----------------|----------------------------------------------------------|
E|-----|----------------|----------------------------------------------------------|

  D                   Em               D        

E|----------14-15-17b|19--22b24-22-19-|------19-22-19------------------22|
B|----17b19----------|----------------|22b24----------22b244r22--22b24---|
G|r14----------------|----------------|----------------------------------|
D|-------------------|----------------|----------------------------------|
A|-------------------|----------------|----------------------------------|
E|-------------------|----------------|----------------------------------|


  Em                D                     Em           

E|22-------------14|15-14----------------|--|
B|---20----17b19---|------15-------------|--|
G|------21---------|---------14--14b16r14|12|
D|-----------------|---------------------|--| 
A|-----------------|---------------------|--| 
E|-----------------|---------------------|--|
Comments