Charles Wright - Express Yourself Chords & Tabs

 

Express Yourself Chords & Tabs

Charles Wright Chords & Tabs

Version: 1 Type: Bass Tab

Express Yourself Bass Tab

This song tab can also be used for the NWA song of the same name because they sampled this song.

Intro:
G|-8---8----------------------|
D|--------5-6-8-5---6--66---8-| X2 
A|---6-------------6------8---|
E|----------------------------|
[ Tab from: http://www.guitartabs.cc/tabs/c/charles_wright/express_yourself_btab.html ]
Main Part:
G|-8---8--------------------------|--------------|
D|--------5-6-8-5---6--66----8----|---6-8-6------|
A|---6-------------6-------8------|---------8----|
E|--------------------------------|--------------|

Bride:
G|------------------------------------------|
D|------------------------------------------|
A|-----3-4-6-----3-4-6-----3-4-6------5-6-8-|
E|-4-4-------4-4-------4-4--------6-6-------|

I think that covers it.  Wicked sweet song and surprisingly no tab for it.

http://www.expressyourself.net/