Charlatans - Up At The Lake Chords & Tabs

 

Up At The Lake Chords & Tabs

Charlatans Chords & Tabs

Version: 1 Type: Tab 0 ratings
1 star 2 stars 3 stars 4 stars 5 stars
comments

Up At The Lake Tab

   
-----------------------------------------------------------------------------
                UP AT THE LAKE  -  The Charlatans
-----------------------------------------------------------------------------


Tabbed by Paul Kelly
E-mail: kellymanwhat@hotmail.com


Standard Tuning
Chords used: E  A  D  G  B  E
B            7  9  9  x  x  x
A            5  7  7  x  x  x
G            3  5  5  x  x  x
F#           2  4  4  x  x  x
Em           x  7  9  9  8  7
Fm           x  8  10 10 9  8
F#m          x  9  11 11 10 9
Gm           x 10  12 12 11 10


[Intro]
E----------------------------------------------|
A----------------------------------------------|
D----------------------------------------------|
G----------------------------------------------|
B-----------------------8(x12)---7-7-----------|
e--7(x12)---5-5---7-7-----------------5-5---7--|

B           B  -  A
G           F# -  A 


[Verse]
B                                                 B - A 
I don't see no wheat fields from the window today 
G                                                 F# - A 
I don't feel no sunshine when I'm up at the lake 


[Bridge] 
B                                    
And i've seen this once before 
                         B - A
And i'll say it once again 
      G
All i want is the truth 
                      F# 
Cos I sold my soul to you, ooooooooooooooh 

E--------------------------------------------------------|
A--------------------------------------------------------|
D--------------------------------------------------------|
G-----11----11---11---------------11----11---11----------|
B--12----10----------10--12----12----10----------10--12--|
e--------------9---------------------------9-------------|


[Chorus]
E-------------------------------------------------------|
A-------------------------------------------------------|
D--/9----/9-------9--/10----/11-----/11--------11--/10--|
G-------------------------------------------------------|
B-----8-----8-----8--/9---------10------10-----10--/9---|
e-----------------7--/8------------------------9---/8---|

Em 
I do believe, the pain is deep 
            Fm - F#m                       F#m - Fm
It kills my heartbeat and it dulls society 

E-----------------------------------------------|
A-----------------------------------------------|
D--/9----/9-------9--/10----/11--------12--/11--|
G-----------------------------------------------|
B-----8-----8-----8--/9---------10-----11--/10--|
e-----------------7--/8----------------10--/9---|

Em 
I do believe, the pain is real 
            Fm - F#m                        Gm - F#   (strum these once)
It kills my heartbeat and it dulls society


[Verse] 
E--------------------------------------------------------|
A--------------------------------------------------------|
D--------------------------------------------------------|
G-----11----11---11---------------11----11---11----------|
B--12----10----------10--12----12----10----------10--12--|
e--------------9---------------------------9-------------|

B                                                 B - A 
I don't feel no pleasure when there's only a pain 

E--------------------------------------------------------|
A--------------------------------------------------------|
D--------------------------------------------------------|
G-----11----11---11---------------11----11---11----------|
B--12----10----------10--12----12----10----------10--12--|
e--------------9---------------------------9-------------|

G                                               F# - A 
I like to hear a bugle with a toot of champagne 

[ Tab from: http://www.guitartabs.cc/tabs/c/charlatans/up_at_the_lake_tab.html ]
[Bridge] 
E--------------------------------------------------------|
A--------------------------------------------------------|
D--------------------------------------------------------|
G-----11----11---11---------------11----11---11----------|
B--12----10----------10--12----12----10----------10--12--|
e--------------9---------------------------9-------------|

B 
And you see me on fire 
                         B - A 
And you seen me borderline 

E--------------------------------------------------------|
A--------------------------------------------------------|
D--------------------------------------------------------|
G-----11----11---11---------------11----11---11----------|
B--12----10----------10--12----12----10----------10--12--|
e--------------9---------------------------9-------------|

G 
There is a woooooooooooooorld, 
F# 
oh, Oh, oh, Oh, ooooooooooh 

E--------------------------------------------------------|
A--------------------------------------------------------|
D--------------------------------------------------------|
G-----11----11---11---------------11----11---11----------|
B--12----10----------10--12----12----10----------10--12--|
e--------------9---------------------------9-------------|


[Chorus] 
E-------------------------------------------------------|
A-------------------------------------------------------|
D--/9----/9-------9--/10----/11-----/11--------11--/10--|
G-------------------------------------------------------|
B-----8-----8-----8--/9---------10------10-----10--/9---|
e-----------------7--/8------------------------9---/8---|

Em 
I do believe, the pain is deep 
            Fm - F#m                       F#m - Fm
It kills my heartbeat and it dulls society 

E-----------------------------------------------|
A-----------------------------------------------|
D--/9----/9-------9--/10----/11--------12--/11--|
G-----------------------------------------------|
B-----8-----8-----8--/9---------10-----11--/10--|
e-----------------7--/8----------------10--/9---|

Em 
I do believe, the pain is real 
            Fm - F#m                        Gm - F#   (strum these once)
It kills my heartbeat and it dulls society


[Solo]
E--------------------------------------------------------|
A--------------------------------------------------------|
D------------9-9---------------9-9-----------------------|
G--9-7-9-7-9-------7-9-7-9-7-9-------7-9-7--9--/12--/14--|
B--------------------------------------------------------|
e--------------------------------------------------------|

E---------------------x/0----------------------x/0-------|
A---------------------x/0----------------------x/0-------|
D------------9-9---9--x/0-------------9-9---9--x/0-------|
G--9-7-9-7-9-----7----x/0---7-9-7-9-7-9-----7--x/0-------|
B--------------------------------------------------------|
e--------------------------------------------------------|

E--------------------------------------------------------|
A--------------------------------------------------------|
D--------------------------------------------------------|
G----------7-9-7---9---/12---/14---/16-------------------|
B--------------------------------------------------------|
e--------------------------------------------------------|

B           B  -  A
G           F# -  A  
B           B  -  A               
G           F#
            oh, Oh, oh, Oh, ooooooooooh 


[Chorus]
E-------------------------------------------------------|
A-------------------------------------------------------|
D--/9----/9-------9--/10----/11-----/11--------11--/10--|
G-------------------------------------------------------|
B-----8-----8-----8--/9---------10------10-----10--/9---|
e-----------------7--/8------------------------9---/8---|

Em 
I do believe, the pain is deep 
            Fm - F#m                       F#m - Fm
It kills my heartbeat and it dulls society 

E-----------------------------------------------|
A-----------------------------------------------|
D--/9----/9-------9--/10----/11--------12--/11--|
G-----------------------------------------------|
B-----8-----8-----8--/9---------10-----11--/10--|
e-----------------7--/8----------------10--/9---|

Em 
I do believe, the pain is real 
            Fm - F#m                        Gm - F#  - B   (strum these once)
It kills my heartbeat and it dulls society
Comments