Charge - Vaughandrix Chords & Tabs

 

Vaughandrix Chords & Tabs

Charge Chords & Tabs

Version: 1 Type: Tab 0 ratings
1 star 2 stars 3 stars 4 stars 5 stars
comments

Vaughandrix Tab

Charge
Vaughandrix (Tribute to SRV & Hendrix)
Transcribed by Soch Hean
Tuning: Standard
Go to www.chargeworld.com to find the song.

Intro: Gtr I
|---0---------------------------------------------------------------|
|---0---------------------------------------------------------------|
|----------------------------4h6p4--6-6s9s6-4-----------------------|
|------------------2h4--4s=6------------------6p4=s2---2-4=s6s4p2---|
|-----------2--2h4-----------------------------------4------------4-|
|-0---0h2h4---------------------------------------------------------|

|---------------------------x-------------------------------------|
|-----------------5--7--/9--x--5---------9------------------------|
|---4-4h6p4---4-6----6--/8--x--4---------9------------------------|
|-6---------6-------------------------11---11-9-11---------9h11p9-|
|----------------------------------------------------9h11---------|
|--------------------------------------------------9--------------|

|-------------------------------------------------------------------7--4h7p4---|
|-------------------------5--4-----------------------------------------------4-|
|---------11--9h11p9------4--4--------4--------4-----------4h6p4---------------|
|----9h11------------11---4--4------4---4----6---6-------6-------6-------------|
|-11------------------------------2--------6-----------6-----------------------|
|--------------------------------------------------4---------------------------|

|--------------0---0--0-x-0-0--x-0-2---2-0-2-0---x-0-2-2-----4--x-4-4--------|
|-7--6--4--5---0---0--0-x-0-0--x-0-3---3-3-3-3---x-3-3-3-----5--x-5-5h7p5----|
|-6--6--6--6---1---1--1-x-1-1--x-1-2---2-2-2-2---x-2-2-2-----6--x-4-4-----6--|
|-6--6--6--6---2---2--2-x-2-2--x-2-0---0-0-0-0---x-0-0-0-----6--x-6-6--------|
|--------------2---2--2-x-2-2--x-2---------------------------4--x-4-4--------|
|--------------0---0--0-x-0-0--x-0-------------------------------------------|

|-----------0----------------------------------------------|
|-4-4h5-4---0---------------------5------------------------|
|-4-4---4---2--------1h2-1--2-2s4-----1h2-1----------------|
|-4-4---4---2-------------------------------2----2h4-4s6---|
|-2-2---2---0----------------------------------------------|
|----------------------------------------------------------| 
(Repeat during the Lead)

Lead Guitar: Gtr II (0:38)
|------------------------------------------------------------|
|------------------------------------------------------------|
|----------------------9--9-11-9----------9--9--11--9--------|
|------9-9--9s11--9s11-----------9---9s11--------------11----|
|-9s11-------------------------------------------------------|
|------------------------------------------------------------|
                  
|------------------------------------------------------------|
|------------------------------------------------------------|
|-------------------------------------------8-9--9s11--------|
|-9s11-9----9-11-9s11~~------9-11-11b13--11------------------|
|--------11-------------9s11---------------------------------|
|------------------------------------------------------------|
[ Tab from: http://www.guitartabs.cc/tabs/c/charge/vaughandrix_tab.html ]
|------------------------------------------------------------|
|------------------------------------------------------------|
|-/9-11-11b13--11b13r(11)p9----9h11--11b13--11b13r(11)p9-----|
|---------------------------11---------------------------11--|
|------------------------------------------------------------|
|------------------------------------------------------------|
      
|------------------------------------------------------------|
|------------------------------------------------------------|
|--------------/9-8-9--9s11-9~~------9-11b13-11-9-11-9-------|
|-11s14~~~~----------------------/11-------------------9~~---|
|------------------------------------------------------------|
|------------------------------------------------------------|
             
|--------------------------------------------------------------|
|---------7---7s9~~~----7--9--9b9.5----9-10-10s12~--10--9-10---|
|-/9-8-9-------------------------------------------------------|
|--------------------------------------------------------------|
|--------------------------------------------------------------|
|--------------------------------------------------------------|
 
|--------------------------------------------------------------|
|--9-----------------------------------------------------------|
|-----9~~--------------7--7s9--7~~~-----7--7~~---7~~---7-------|
|------------------/10---------------/9--------9-----9---------|
|--------------------------------------------------------------|
|--------------------------------------------------------------|
		       
|-------------------------------|
|-------------------------------|
|-7s9---------------------------|
|---------7s9-10-9-9s12~~~~~----|
|-------------------------------|
|-------------------------------|
	       
|------------------------------------------------------------|
|------------------------------------------------------------|
|-----------------------9-9-11-9----------9-9-11-9-----------|
|------9-9-9s11~~--9s11----------9~--9s11----------11--------|
|-9s11-------------------------------------------------------|
|------------------------------------------------------------|
		     
|----------------------------------------------------------------|
|----------------------------------------------------------------|
|--------------------------/8--6-4--6s8--6--8--9--9s11----9-11---|
|-9s11-9----9-11--9s11~~-----------------------------------------|
|--------11------------------------------------------------------|
|----------------------------------------------------------------|
			
|------------------------------------------------------------|
|------------------------------------------------------------|
|-11b13--11b13r(11)p9-----[11]b13--11-9----------------------|
|---------------------11~---------------11---11s14~~---------|
|------------------------------------------------------------|
|------------------------------------------------------------|
		
|------------------------------------------------------------|
|------------------------------------------------------------|
|-/9-8-9-9s11-9~~---------9----11b13-11-9-11-9---------------|
|---------------------/11----x-----------------9~~-----------|
|------------------------------------------------------------|
|------------------------------------------------------------|
		     
|------------------------------------------------------------|
|------------7---7s9~~------7--9---9b9.5---9-10-10s12--------|
|-/8-9-8-9---------------------------------------------------|
|------------------------------------------------------------|
|------------------------------------------------------------|
|------------------------------------------------------------|

|--------------------------------------------------------------|
|-10--9-10--9--------------------------------------------------|
|--------------9~~-------------7--7s9-7~~-----7h=9-7~~-----7~~-|
|--------------------------/10-------------/9-----------9------|
|--------------------------------------------------------------|
|--------------------------------------------------------------|

|------------------------------------------------------------|
|---------------------------------------------5---5----------|
|---7--7s9~~-------------------------------/7---7---7s9~~----|
|-9-------------7s9-10-9--9s12~~~----------------------------|
|------------------------------------------------------------|
|------------------------------------------------------------|

Chord Solo: (Rhythm Guitar) Gtr I
(3:12)
|-4--4--4-4--4-----7-7-7-7--7-7-7----5---4--4--4-4----4----------|
|-5--5--5-5--5-----7-7-7-7--7-7-7----5---4--4--4-4----4----------|
|-6--6--6-6--6-----8-9-8-8--8-8-8----6---4--4--4-4h6--4----------|
|-6--6--6-6--6-----9-9-9-9--9-9-9----7---6--6--6-4----6----------|
|----------------------------------------------------------------|
|----------------------------------------------------------------|

|-----------------------0---0---0-x-0-0-----2--2-2-2-2---2-2-2-x-x-|
|--7---6---4-4--5-------0---0---0-x-0-0-----3--3-3-3-3---3-3-3-x-x-|
|--6---6---6-6--6-------1---1---1-x-1-1-----2--2-2-2-2---2-2-2-x-x-|
|--6---6---6-6--6-------2---2---2-x-2-2-----0--0-0-0-0---0-0-0-x-x-|
|--4---4---4-4--4-------2---2---2-x-2-2----------------------------|
|-----------------------0---0---0-x-0-0----------------------------|

|-4-4-4-4--4-4----7-7-7---5----5-5-5-5-5-5-5-5-5-5--5-5--5-5-----|
|-5-5-5-5--5-5----7-7-7---5----5-5-5-5-5-5-5-5-5-5--5-5--5-5-----|
|-6-6-6-6--6-6----8-9-8---6----6-6-6-6-6-6-6-6-6-6--6-6--6-6-----|
|-6-6-6-6--6-6----9-9-9---7----7-7-7-7-7-7-7-7-7-7--7-7--7-7-----|
|----------------------------------------------------------------|
|----------------------------------------------------------------|

|-5-5--5-5--5-5--5-5---0-|
|-5-5--5-5--5-5--5-5---0-|
|-6-6--6-6--6-6--6-6---1-|
|-7-7--7-7--7-7--7-7---2-|
|----------------------2-|
|----------------------0-|

Lead Guitar:  Gtr II
|--------------------------------------------------|
|--------------------------------------------------|
|-/9-8-9--9h11-9~--------[9]-11b13-11-9-11-9-------|
|-------------------9s11----------------------9~~--|
|--------------------------------------------------|
|--------------------------------------------------|
					
|-------------------------------------------------------------|
|-------------------------------------------------------------|
|-/8-9-8-9--11p9--11s13~~---11-13--13s14~-13~-14--14s16-------|
|-------------------------------------------------------------|
|-------------------------------------------------------------|
|-------------------------------------------------------------|
		       				   
|------------------------------------------------------------|
|------------------------------------------------------------|
|-14h16p14--13-14-13------------13-13b14(13)r--11----11h12~~-|
|--------------------14~~-------------------------14---------|
|------------------------------------------------------------|
|------------------------------------------------------------|
	  		    
|------------------------------------------------------------|
|-----------------------------15--15~~-----15b15.5------15---|
|-12-14-12--14s16~~~------/16-----------16----------16-------|
|------------------------------------------------------------|
|------------------------------------------------------------|
|------------------------------------------------------------|
				    
|-----------------------------------------|
|-17--17b19--17\~~~~~---------------------|
|-----------------------------------------|
|-----------------------/9-10-9--9s12~~---|
|-----------------------------------------|
|-----------------------------------------|

Gtr I Outro: (4:05)
|-------------0----------------0------------3--2h3p2-0--------------------|
|---------1-----1----------3-----3--------3------------3------3-------3---|
|-------2---2------------0---0-----0----2-------------------2---2---2---2-|
|---0h2----------------2--------------0-------------------0-------0-------|
|-0----------------2-3----------------------------------------------------|
|-------------------------------------------------------------------------|

Outro: (4:16)
|---0---------------------------------------------------------------|
|---0---------------------------------------------------------------|
|----------------------------4h6p4--6-6s9s6-4-----------------------|
|------------------2h4--4s=6------------------6p4=s2---2-4=s6s4p2---|
|-----------2--2h4-----------------------------------4------------4-|
|-0---0h2h4---------------------------------------------------------|

|---------------------------x--------|
|-----------------5--7--/9--x--5-----|
|---4-4h6p4---4-6----6--/8--x--4-----|
|-6---------6------------------2-----|
|------------------------------------|
|------------------------------------|
Comments