Chapman Tracy - Give Me One Reason Chords & Tabs

 

Give Me One Reason Chords & Tabs

Chapman Tracy Chords & Tabs

Version: 1 Type: Tab 0 ratings
1 star 2 stars 3 stars 4 stars 5 stars
comments

Give Me One Reason Tab

   
#----------------------------------PLEASE NOTE---------------------------------#
#This file is the author's own work and represents their interpretation of the #
#song. You may only use this file for private study, scholarship, or research. #
#------------------------------------------------------------------------------#
#

    

                             GIVE ME ONE REASON

It's a 12bar blues in G flat.

Remember to flatten all these chords.

G, G, C, D, G, G
C, C, C, D, G, G
D, D, C, C, G, G
Repeat.

Here are the tabs:

         ____________________________
        |2,3...
e|-----||---------2-----------------------2-----------2---|
b|-----||-----2---2-2-----4-----6-----2---2-2-----2---2-2-|
g|-----||.----3-----3-----4-----6-----3-----3-----3-----3-|
d|-----||.----4-----4-----4---6-------4-----4-----4-----4-|
a|-----||-------------0-2---4-----------------------------|
e|-0-0-||-0-2---2-----------------0-2---2-----0-2---2-----|

e|---------------------------------2-----------2---|
b|-----4---4-------4---6-------2---2-2-----2---2-2-|
g|-----4---4-4-----4---6-6-----3-----3-----3-----3-|
d|-----4-----4-----4-----6-----4-----4-----4-----4-|
a|-0-2---2-----0-2---4-----------------------------|
e|-------------------------0-2---2-----0-2---2-----|

e|---------------------------------2-----------2----||
b|-----6---6-------4---4-------2---2-2-----2---2-2--||
g|-----6---6-6-----4---4-4-----3-----3-----3-----3-.||
d|-----6-----6-----4-----4-----4-----4-----4-----4-.||
a|-0-4---4-----0-2---2------------------------------||
e|-------------------------0-2---2-----0-2---2------||

The solo is just blues in G flat, using this pattern:

e|----------9----12--14--|
b|-----------10--12-(14)-|    Numbers in brackets are only bent to,
g|----------9--11---(14)-|    they are never picked.
d|-------7--9--11--------|    All fills are in this pattern aswell.
a|-------7--9------------|
e|-2--5--7--9------------|

            Transcribed by Ryan BOOKER 

----------------------------------------------------------------------------

                                  I'm Ready

Fmaj7 654321
      x33210

CHORDS:

Main:
Fmaj7, C, G, F.
[ Tab from: http://www.guitartabs.cc/tabs/c/chapman_tracy/give_me_one_reason_tab.html ]
e||-0-----------------|--------------|------------|---------------||
b||-------------------|--------------|------------|---------------||
g||---0-0(2)-0-0(2)-0-|--------------|------------|--------------.||
d||-3---3------3------|---0-0(2)-0---|--0-0(2)---0|----0(2)-0----.||
a||-------------------|-3-----------0|---------3--|--3--------3-2-||
e||-------------------|--------------|3-----------|1--------------||

Break Down After First Verse:
Dsus2, G-, F, Fmaj7, C, Dsus2, G-, F, ...(Can't Get the last couple of
chords)

   Dsus2      G-          F        Fmaj7  C
e|---------|----------|-1--------|-----------|
b|-3-------|-0--------|-1--------|-1----1----|
g|-2-------|-0--------|-2--------|-2----0----|
d|-0-------|-0--------|-3--------|-3----2----|
a|---------|-2--------|-3--------|------3----|
e|---------|-3--------|-1--------|-----------|

Repeat Main...

The end is the last two bars of the main progression repeated (with slight
variations) until the fade out.

            Transcibed by Ryan BOOKER 

----------------------------------------------------------------------------

                               Smoke and Ashes

CHORDS:
E major and Asus2 (002200)

INTRODUCTION:

  Asus2                                 Asus2
----------0----------0----------0-----------------0----------0---------0----
-------------0----------0----------------------------0----------0-----------
---2------------2-----------2--------------2-------------2---------2--------
---2---------------------------------------2--------------------------------
----------------------------------------------------------------------------
----------------------------------------------------------------------------

...continued...

     E                                   E
----------0----------0----------0--------------0----------0----------0------
-------------0-----------0-------------------------0---------0--------------
-----1----------1------------1-----------1-------------1---------1----------
-----2-----------------------------------2----------------------------------
-----2-----------------------------------2----------------------------------
----------------------------------------------------------------------------

Through the verses and chorus, just strum the chords. If you have two
guitars playing at once, one guitar playing the arpeggiation in the intro
sounds cool.

VERSES AND CHORUS:

Play the same chords as in the introduction.
Transcribed by Jonathan Powell 

----------------------------------------------------------------------------

                 

                      Transcribed by Alon Drori & bOaZ

----------------------------------------------------------------------------

                               Top of document
Comments