Channel Zero - Suck My Energy Chords & Tabs

 

Suck My Energy Chords & Tabs

Channel Zero Chords & Tabs

Version: 1 Type: Tab 0 ratings
1 star 2 stars 3 stars 4 stars 5 stars
comments

Suck My Energy Tab

channel zero is a belgian band, they make heavy metal, they should be, they don't
have an official website though, sorry, but u can always check out
http://user.online.be/~ndevreese/chanzero.htm.
_________________________________________________________________
_________________________________________________________________

song title: Suck my energy
album: Unsafe
artist: Channel Zero
Tab by: Gert Wouters   (mail comments to: pedrodeneusbeer@yahoo.com)


Tab

INTRO :

riff 1a
E---------------------------------|---------------------------------|
B---------------------------------|---------------------------------|
G--0-0-0-0-0-0-0-0-0-0---0-0-0-0--|--0-0-0-0-0-0-0-0-0-0---0-0-0-0--|
D--5-5-5-5-5-5-5-5-5-5---6-6-6-6--|--5-5-5-5-5-5-5-5-5-5---6-6-6-6--|
A---------------------------------|---------------------------------| 
E---------------------------------|---------------------------------|

riff 1aa                 
E------------------------__3__---|---------------------------------|
B--------------------------------|---------------------------------|
G--0-0-0-0-0-0-0-0-0-0---0-0-0---|--0-0-0-0-0-0-0-0-0-0---0-0-0-0--|
D--5-5-5-5-5-5-5-5-5-5---6-6-6---|--5-5-5-5-5-5-5-5-5-5---6-6-6-6--|
A--------------------------------|---------------------------------| 
E--------------------------------|---------------------------------|

riff 1b
E--------------------------------------------------|
B--------------------------------------------------|
G---0--0--0--0--0--0--0--0--0--0--0----0--0--0--0--|
D--12-12-12-12-12-12-12-12-12-12-12---15-15-15-15--|
A--------------------------------------------------|
E--------------------------------------------------|

E------------------------------------------------|
B------------------------------------------------|
G---0--0--0--0--0--0--0--0--0--0--0--0--0--0--0--|
D--11-11-11-11-11-11-11-11-11-11-11-11-11-11-11--|
A------------------------------------------------|
E------------------------------------------------|


FILL:

riff 1c
E---------------|
B---------------|
G---------------|
D--5------------|
A--5---(hold)---|
E--3------------|


MAIN RIFF :
[ Tab from: http://www.guitartabs.cc/tabs/c/channel_zero/suck_my_energy_tab.html ]
riff3
E-------------------------------------|----------------------------------|
B-------------------------------------|----------------------------------|
G-------------------------------------|----------------------------------|
D--5-5--6-6--5-5--5--6-6--5-5--3-3--2-|--5-5--6-6--5-5--6--5-5--3-3--2---|
A--5-5--6-6--5-5--5--6-6--5-5--3-3--2-|--5-5--6-6--5-5--6--5-5--3-3--2---|
E--3-3--4-4--3-3--3--4-4--3-3--1-1--0-|--3-3--4-4--3-3--4--3-3--1-1--0---|


FILL 2:

riff4
E--------------------|------------------------------------|
B--------------------|------------------------------------|
G--------7--6--------|-------7--6----8--------------------|
D--5-----7--6-----7--|-5-----7--6----8--------------------|
A--5-----5--4-----7--|-5-----5--4----6--------------------|
E--3--------------5--|-3----------------------------------|


BRIDGE :

E------------------------------------------------------|
B------------------------------------------------------|
G---0---0--0--0--0--0--0--0--0---0--0------------------|
D--12--12-12-12-12-15-12-15-11--12-10------------------|
A------------------------------------------------------|
E------------------------------------------------------|



play:
riff 1a 2x
riff 1b 2x
riff 1aa 1x 
riff 1b 4x
riff 1c 1x
riff 3  4x
riff 4  2x
riff 3  4x
bridge  4x
riff 4  2x
riff 3  4x hold
drumsolo
riff 3  2x hold



Lyrics

female:
vampires are lucky, they feed on others
we've gotta feed on ourselves
we've gotta eat our legs 'till we get the energy to walk
we've gotta come so we can go
we've got to suck ourselves dry
we've got to eat away at ourselves 'till there's nothing left but appetite
we've gotta give and give and give
crazy, what does it take to make sense
it ain't worth it
jesus said so many times


franky:
yeeeeaaaaaaah!!!!!!
You, you once broke my belief
And I know, I was so damn naive
Remember the days you acted so real
The things you said were not a big deal
You could call me,
whenever you wanted
I was yours, a toy, always ready
Get away, get away, get away, dont wanna see, don't try to manipulate
makes me, wonder
Whenever you're hanging around
and I die, die in front of your feet
And I've tried to exist
on your heat

chorus:
Sucking me dry for my energy
Sucking me dry with your energy
Sucking me dry for your energy

Get away, get away, get away, 
Get away, get away, stay away from me
Get away don't come
on so close to me
And I know you'll be back
So tell, tell me what do you need
Allright, take my body to feed

chorus:
Sucking me dry for my energy
Sucking me dry with your energy
Sucking me dry for your energy

sucking me, 
sucking me dry, 
sucking me
sucking
suckin me dry

chorus:
Sucking me dry for my energy
Sucking me dry with your energy
Sucking me dry for your energy

Sucking me dry for more energy (repeat)
Comments