Channel Zero - Black Fuel Chords & Tabs

 

Black Fuel Chords & Tabs

Channel Zero Chords & Tabs

Version: 1 Type: Tab 0 ratings
1 star 2 stars 3 stars 4 stars 5 stars
comments

Black Fuel Tab

   
Channel zero
============

Black fuel
----------
1) =guitar 1
2) =guitar 2
D|--------------------------------------------|
A|--------------------------------------------|
F|--------------------------------------------|
C|--------------------------------------------|
G|--------------------------------------------|
D|--------------------------------------------|

Intro 1

1+2) D|--------------------------------------------|
     A|--------------------------------------------|
     F|--------------------------------------------|
     C|2~~~~~~~~~----------------------------------|
     G|2~~~~~~~~~----------------------------------|
     D|0~~~~~~~~~(let ring)------------------------|

1) D|--------------------------------------------|
   A|--------------------------------------------|
   F|--16---17---13---14---16---17---13---9------|
   C|--------------------------------------------|
   G|--------------------------------------------|
   D|0---------0---------0---------0-------------| X5

(after 2 times)
2) D|--------------------------------------------|
   A|--------------------------------------------|
   F|--------------------------------------------|
   C|2~~~~~~~~~----------------------------------|
   G|2~~~~~~~~~----------------------------------|
   D|0~~~~~~~~~(let ring)------------------------| X3
At the end of the 5th time
   D|--------------------------------------------|
   A|--------------------------------------------|
   F|--------------------------------------------|
   C|------------------------------------5-4-3-2~|
   G|------------------------------------5-4-3-2~|
   D|------------------------------------3-2-1-0~|

Drums

Intro 2
[ Tab from: http://www.guitartabs.cc/tabs/c/channel_zero/black_fuel_tab.html ]
1+2) D|----------------------------------|
     A|----------------------------------|
     F|----------------------------------|
     C|2---------2--6-2---------2--6-3-3-|
     G|2-----7p8-2--6-2-----7p8-2--6-3-3-|
     D|0-0-0-----0--4-0-0-0-----0--4-1-1-| X4
         . .            . .

Drums

Intro 2 X4

Verse
A.
1) D|--------------------|
   A|--------------------|
   F|--------------------|
   C|--------------------|
   G|--------------------|
   D|3p0-0-0-3p0-0-0-3-3-| X4
+2) After 2 times

1+2) D|---------|
     A|---------|
     F|---------|
     C|X-X--X-X-|
     G|X-X--X-X-|
     D|X-X--X-X-|
B.= A together X2

Chorus

1+2) D|--------------------------------------------------------|
     A|--------------------------------------------------------|
     F|-----8--8----------8--8----------8--8----------8--8-----|
     C|^7---7--7-X-X-^7---7--7-X-X-^7---7--7-X-X-^7---7--7-X-X-|
     G|^6---6--6-X-X-^6---6--6-X-X-^6---6--6-X-X-^6---6--6-X-X-|
     D|^5---5--5-X-X-^5---5--5-X-X-^5---5--5-X-X-^5---5--5-X-X-|

Verse B X2

Chorus

Intro 1 X4

Drums

Intro 1 X4

Bridge
A.
1+2) D|-------------------------|
     A|-------------------------|
     F|-------------------------|
     C|10--------------3--2~~~~-|
     G|10--------------3--2~~~~-|
     D|8---------------1--0~~~~-| X3
B.
1+2) D|----------------------------------------|
     A|----------------------------------------|
     F|----------------------------------------|
     C|10--------------3--2-2-2--2-2--2-2--2-2-|
     G|10--------------3--2-2-2--2-2--2-2--2-2-|
     D|8---------------1--0-0-0--0-0--0-0--0-0-|
			    . .  . .  . .  . .
Outro
1) D|-------------------------------------|
   A|-------------------------------------|
   F|-------------------------------------|
   C|X-X-2--2--2--2--3--X-X-2--2--2--2--2-|
   G|X-X-2--2--2--2--3--X-X-2--2--2--2--2-|
   D|X-X-0--0--0--0--1--X-X-0--0--0--0--0-| X10
+2) After 2 times

Intro 2 X8

****
For more tabs: http://groups.msn.com/skjif
Comments