Chanapai - Home Chords & Tabs

 

Home Chords & Tabs

Chanapai Chords & Tabs

Version: 2 Type: Bass Tab 0 ratings
1 star 2 stars 3 stars 4 stars 5 stars
comments

Home Bass Tab

                           Chanapai   -   Home
                          Tabbed By Jamie Barton
                          Bassist  - Jamie Barton
                        jamie.barton@flashmail.com
                            www.chanapai.co.uk
[ Tab from: http://www.guitartabs.cc/tabs/c/chanapai/home_btab_ver_2.html ]
 Verse:
G-----------------------------------------------------------------------|
D------7--------------7--------------3--------------3--------------5----|
A---------7-----7--------7-----7--------3-----3--------3-----3----------|
E---5--------------5--------------1--------------1--------------3-------|

G---------------------------------------------------------|
D---------------5--------------5--------------5-----------|
A---5-----5--------5-----5--------5-----5--------5-----5--|
E------------3--------------3--------------3--------------|

 Chorus:
G-----------------------------------------------------------------------|
D-----------------------------------------------------------------------|
A---------------------3--3--3--4--3--2----------------------------------|
E---5--5--5--4--5--6--------------------3--3--2--3--3--3--3--2--3--3----|
Comments