Champs - Tequila Chords & Tabs

 

Tequila Chords & Tabs

Champs Chords & Tabs

Version: 1 Type: Tab 0 ratings
1 star 2 stars 3 stars 4 stars 5 stars
comments

Tequila Tab

   
Title: Tequila
Artist: Champs
Tabbed By: Tony Grover
Website: http://www.musicpage.de/blinded
E-Mail: tony@BLiNdEdMaiL.zzn.com

h = hammer
p = pull-off
s = slide
<>= pick slide
x = finger/hand mute
X = palm mute
* = harmonic

Melody:

     E - - - - - - - - - - - - - - - - - - - - - - - - - - - - - - - - - - - - - --
     B - - - - - - - - - - - - - - - - - - - - - - - - - - - - - - - - - - - - - --
     G - - - 3-3-3- -5- - -3-- -- -3-3-3-5- - -3- - - - - - - - - - - - - - - - - -
     D - - 3- - - - - - -6- -3 - 3- - - -6- - - - - - - - - - - - - - - - - - - -
     A - - - - - - - - - - - - - - - - - - - - - - - - - - - - - - - - - - - - - - -
     E - - - - - - - - - - - - - - - - - - - - - - - - - - - - - - - - - - - - - - -

Chorus:
[ Tab from: http://www.guitartabs.cc/tabs/c/champs/tequila_tab.html ]
     E - -6- -6- - -9- -6- - -17s0- -|- -8-8-8-8-8-8- -13- - - - - - -
     B - -6- -6- - -8- -6- - - - - - |- -8-8-8-8-8-8- -13- - - - - - -
     G - -7- -7- - -9- -7- - - - - - |- -9-9-9-9-9-9- -13- - - - - - -
     D - - - - - - - - - - - - - - - | - - - - - - - - - - - - - - - -
     A - - - - - - - - - - - - - - - | - - - - - - - - - - - - - - - -
     E - - - - - - - - - - - - - - - | - - - - - - - - - - - - - - - -

SOME notes in the solo:

     E - - - - - - - - - - - - - - - - - - - - - - -6-6-6- -4-4- - - - -
     B - -3-3-3- -6-4-6-4-3-4-3- - - - - - - - - - - - - - - - - 6-4-6-3
     G - - - - - - - - - - - -0-3- - - - - - - - - - - - - - - - -------
     D - - - - - - - - - - - - - -3- - - - - - - - - - - - - - ---------
     A - - - - - - - - - - - - - - - - - - - - - - - - - - - - - - - - -
     E - - - - - - - - - - - - - - - - - - - - - - - - - - - - - - - - -
Comments