Chambers Brothers - Time Has Come Today Chords & Tabs

 

Time Has Come Today Chords & Tabs

Chambers Brothers Chords & Tabs

Version: 1 Type: Bass Tab 0 ratings
1 star 2 stars 3 stars 4 stars 5 stars
comments

Time Has Come Today Bass Tab

TIME HAS COME TODAY
BY The Chambers Brothers
TABBED BY James Ryan
neo@floodcity.net

INTRO
(LET THESE NOTES RING OUT)
G|----------------------------------------|
D|----------------------------------------|
A|--5-REST--3-REST----------5-REST--------|
E|------------------3-REST----------------|

VERSES
[ Tab from: http://www.guitartabs.cc/tabs/c/chambers_brothers/time_has_come_today_btab.html ]
G|-----------------------------------------------|
D|-----------------------------------------------|
A|-5-5-5-5-5-3-3-3-3-3-----------5-5-5-5-5-------|
E|---------------------3-3-3-3-3-----------------|

CHORUS

G|-----------------------------------------------------------|
D|-----------------------------------------------------------|
A|-5-5-5-5-5-5-5-5-3-3-3-3-3-3-------------------------------|
E|-----------------------------5-5-5-5-5-5-5-5-5-5-5-5-5-5---|



THAT'S ALL
Comments