Cephalic Carnage - Scientific Remote Viewing Chords & Tabs

 

Scientific Remote Viewing Chords & Tabs

Cephalic Carnage Chords & Tabs

Version: 1 Type: Bass Tab

Scientific Remote Viewing Bass Tab

   
Band: Cephalic Carnage
Album: Anomalies
Song: Scientific Remote Viewing
Transcribed By: The Great Southern Trendkill 
E-mail: fromadyingfetus@aol.com 

Tuning: A E A D 


Duration Legend
---------------
W - whole; H - half; Q - quarter; E - 8th; S - 16th; T - 32nd; X - 64th; a - acciaccatura
+ - note tied to previous; . - note dotted; .. - note double dotted
Uncapitalized letters represent notes that are staccato (1/2 duration)
Irregular groupings are notated above the duration line
Duration letters will always appear directly above the note/fret number it represents the
duration for.  Duration letters with no fret number below them represent rests.  Multi-
bar rests are notated in the form Wxn, where n is the number of bars to rest for.  Low
melody durations appear below the staff

Tablature Legend
----------------
 h   - hammer-on
 p   - pull-off
 b   - bend
 pb  - pre-bend
 r   - bend release (if no number after the r, then release immediately)
 /\  - slide into or out of (from/to "nowhere")
 s   - legato slide
 S   - shift slide
 - natural harmonic
[n]  - artificial harmonic
n(n) - tapped harmonic
 ~   - vibrato
 tr  - trill
 T   - tap
 TP  - trem. picking
 PM  - palm muting
\n/  - tremolo bar dip; n = amount to dip
 \n  - tremolo bar down
 n/  - tremolo bar up
/n\  - tremolo bar inverted dip
 =   - hold bend; also acts as connecting device for hammers/pulls
 <> - volume swell (louder/softer)
 x   - on rhythm slash represents muted slash
 o   - on rhythm slash represents single note slash

Misc Legend
-----------
 |  - bar
||  - double bar
||o - repeat start
o|| - repeat end
*|  - double bar (ending)
 :  - bar (freetime)
 $  - Segno
 &  - Coda
Tempo markers -  = BPM(8/16=s8/s16), where s8 = swing 8ths, s16 = swing 16ths
 


    E E E E E E E E E E E E E E E E E E E E E E E E E E E E
||o----------------------------------------------------------o||--|
||------------------------------------------------------------||--|
||------------------------------------------------------------||--|
||o----------2-1---------1-2-4-3---------2-1---------1-2-4-3-o||--|


    E E E E E E E E E E E E E E E E E E E E E E E E E E E E
||o----------------------------------------------------------o||
||---4-3---------4-3-------------4-3---------5-4--------------||
||-------4-3---------4-3-------------4-3---------4-3----------||
||o----------2-1---------1-2-4-3---------2-1---------1-2-4-3-o||


    E E E E E E E E     E E E E E E E E E E E E E E E E
||o-----------------o||-------------5-7-6-8-5-7---------|-|
||-------------------||---------4-6-------------3-5-2-4-|-|
||----------3s5-2s4--||-----3-5-------------------------|-|
||o-3s4-3s4---------o||-3s4-----------------------------|-|


    E E E E E E E E E E E E E E E E E E E E E E E E E E E E
||o---------------------------------------------------------o||-|
||--4-3---------4-3-------------4-3---------5-4--------------||-|
||------4-3---------4-3-------------4-3---------4-3----------||-|
||o---------2-1---------1-2-4-3---------2-1---------1-2-4-3-o||-|


    E E E E E E E E     E E E E E E E E E E E E E E E E
||o-----------------o||-------------5-7-6-8-5-7---------|-|
||-------------------||---------4-6-------------3-5-2-4-|-|
||----------3s5-2s4--||-----3-5-------------------------|-|
||o-3s4-3s4---------o||-3s4-----------------------------|-|


    E E E E E E E E     E E E E E E E E   E E E E E E E E
||o-----------------o||-------------5-7-|-6-8-5-7---------|-|
||-------------------||---------4-6-----|---------3-5-2-4-|-|
||----------3-5-2-4--||-----3-5---------|-----------------|-|
||o-3-4-3-4---------o||-3-4-------------|-----------------|-|

[ Tab from: http://www.guitartabs.cc/tabs/c/cephalic_carnage/scientific_remote_viewing_btab.html ]
    E E E E E E E E     E E E E E E E E E E E E E E E E
||o-----------------o||-------------5-7-6-8-5-7---------|-|
||----------5-7-4-6--||---------4-6-------------3-5-2-4-|-|
||--3-4-3-4-3s5-2s4--||-----3-5-------------------------|-|
||o-3s4-3s4---------o||-3s4-----------------------------|-|


    E E E E E E E E     E E E E E E E E E E E E E E E E
||o-----------------o||-------------5-7-6-8-5-7----------|
||-------------------||---------4-6-------------3-5-2-4--|
||----------3-5-2-4--||-----3-5--------------------------|
||o-3-4-3-4---------o||-3-4------------------------------|


  E E H    E E H
|-------------------|
|-------------------|
|-3-2------3-2------|
|-3-2------3-2------|

                        
                        TPTPTPTPTPTPTP TPTPTPTPTPTPTPTP
    S S S S S S S S  8x E E E E E E Q  E E E E E E E E
||o-----------------o||------------------------------8--|
||-------------------||-------------6--------------6----|
||-------------------||-5-----5---5----5-----5---5------|
||o-3-3-2-2-3-3-1-1-o||---6-4---7--------6-4---7--------|


  TPTPTPTPTPTPTP TPTPTPTPTPTPTPTPTPTPTPTPTPTPTP TPTPTPTPTPTPTPTP
  E E E E E E Q  E E E E E E E E E E E E E E Q  E E E E E E E E
|-------------------------------------------------------------8-|
|-------------6--------------6---------------6--------------6---|
|-5-----5---5----5-----5---5-----5-----5---5----5-----5---5-----|
|---6-4---7--------6-4---7-----4---6-4---7--------6-4---7-------|


  TPTPTPTPTPTPTP TPTPTPTPTPTPTPTP
  E E E E E E Q  E E E E E E E E     S S S S S S S S  7x S E s. s. s.
|--------------------------------||o-----------------o||---------------|
|-------------6--------------6---||-------------------||---------------|
|-5-----5---5----5-----5---5-----||-------------------||---------------|
|---6-4---7--------6-4---7-----4-||o-3-3-2-2-3-3-1-1-o||-3-3-2--3--1---|


    E E E E E E E E E E E E E E E E E E E E E E E E E E E E
||o---------------------------------------------------------|
||----------------------------------------------------------|
||----------------------------------------------------------|
||o---------2-1---------1-2-4-3---------2-1---------1-2-4-3-|


  E E E E E E E E E E E E E E E E E E E E E E E E
|-------------------------------------------------------|
|-------------------------------------------------------|
|-------------------------------------------------------|
|---------2-1---------1-2-4-3---------2-1-----4-3-------|


    E E E E E E E E E E E E E E E E E E E E E E E E E E E E E E E E
||o-----------------------------------------------------------------|
||--4-3---------4-3-4-3-------------5-4---------5-4-5-4-------------|
||------4-3-------------4-3-------------5-4-------------4-3---------|
||o---------2-1-------------1-2-4-3---------2-1-------------1-2-4-3-|


  E E E E E E E E E E E E E E E E E E E E E E E E E E E E E E H
|------------------------------------------------------------------|
|-4-3---------4-3-4-3-------------5-4---------5-4-5-4--------------|
|-----4-3-------------4-3-------------5-4-------------4-3-4-3------|
|---------2-1-------------1-2-4-3---------2-1-------------4-3------|


    E E E E E E E E E E E E E E E E E E E E E E E E E E E E E E E E
||o-6-5---------6-5-6-5-------------7-6---------7-6-7-6--------------||
||------6-5-------------6-5-------------7-6-------------6-5----------||
||----------4-3-------------3-4-6-5---------4-3-------------3-4-6-5-o||
||o------------------------------------------------------------------||


  E E S S S      S S S S S S S S  7x S E S.. S.. S
|------------||o-----------------o||----------------|
|------------||-------------------||----------------|
|------------||-------------------||----------------|
|-3-2--------||o-3-3-2-2-3-3-1-1-o||-3-3-2---3---1--|