Celtic Frost - Oriental Masquerade Chords & Tabs

 

Oriental Masquerade Chords & Tabs

Celtic Frost Chords & Tabs

Version: 2 Type: Bass Tab 0 ratings
1 star 2 stars 3 stars 4 stars 5 stars
comments

Oriental Masquerade Bass Tab

 
        "Oriental Masquerade"  By Celtic Frost
         From"into the pamdemonium"1987  
        Music By Tom G. Warrior
        Arranged  by Warrior/St Mark/Ain
        Transcribed by Jeff Gabry

               (Riff 1)		                                


        ---------------------------------------------
        ---------------------------------------------
        ---------------------------------------------
        ---3----5----3----2------------------------


           (riff2)

       ---------------------------------------------
       ---------------------------------------------
       --------------------------------4-----------
       -000-2-000-3-000--5--6---------4------

[ Tab from: http://www.guitartabs.cc/tabs/c/celtic_frost/oriental_masquerade_btab_ver_2.html ]
           (riff3)
 
        ---------------------------------------------
        ---------------------------------------------
        ----------------------4----5----------------
        --0--0--0--4-------------------------------

            (riff 4)

        ---------------------------------------------
        ---------------------------------------------
        -------------------------------6-------------
        --5-------5-------5----------------4-------



              Bass in standard tuning
                  played like

              1) riff 1(2xs)
              2) riff 2 (4xs)
              3) riff 3 (4xs)
              4) riff 4 (10xs)


      Well Good luck Playing this !
Comments