Celtic Frost - Circle Of The Tyrants Chords & Tabs

 

Circle Of The Tyrants Chords & Tabs

Celtic Frost Chords & Tabs

Version: 1 Type: Bass Tab 0 ratings
1 star 2 stars 3 stars 4 stars 5 stars
comments

Circle Of The Tyrants Bass Tab

   
x2
G|--------------|
D|--------------|
A|----6-----5-4-|
E|-6-----5------|

x4
G|------------------|
D|------------------|
A|------------------|
E|-00-6-00-4-5-44-3-|

x1
G|------------------------------------------------------------------------|
D|------------------------------------------------------------------------|
A|------------------------------------------------------------------------|
E|-111111111111111154444444444444444422222222222222-1212-2222222222222222-|

x1
G|---------------------------------------------------------------|
D|---------------------------------------------------------------|
A|---------------------------------------------------------------|
E|-2-3-33334-55554-33332-12-13-33334-55554-33332-12----2-3-4-5-5-|

x4
G|------------------|
D|------------------|
A|------------------|
E|-00-6-00-4-5-44-3-|

x1
G|------------------------------------------------------------------------|
D|------------------------------------------------------------------------|
A|------------------------------------------------------------------------|
E|-111111111111111154444444444444444422222222222222-1212-2222222222222222-|

x1
G|---------------------------------------------------------------|
D|---------------------------------------------------------------|
A|---------------------------------------------------------------|
E|-2-3-33334-55554-33332-12-13-33334-55554-33332-12----2-3-4-5-5-|
[ Tab from: http://www.guitartabs.cc/tabs/c/celtic_frost/circle_of_the_tyrants_btab.html ]
x1
G|---------------------------|
D|---------------------------|
A|----6-----5-4-----6--------|
E|-6-----5-------6-----5-4-3-|

x8
G|----------------|
D|----------------|
A|----------------|
E|-0-0-5-0-4-5-43-|

x4
G|-------------------|
D|-------------------|
A|-------------------|
E|-0-0-4-3---5-6-6---|

x8
G|----------------|
D|----------------|
A|----------------|
E|-0-0-5-0-4-5-43-|

x4
G|-------------------|
D|-------------------|
A|-------------------|
E|-0-0-4-3---5-6-6---|

x4
G|-------------------------|
D|-------------------------|
A|-------------------------|
E|-3333333333333333-232323-|

x4
G|----------------------------------------------------------|
D|----------------------------------------------------------|
A|----------3------------3------------3---------------------|
E|-55555555---3-55555555---3-55555555---3-56666666666666666-|

X4
G|----------------|
D|----------------|
A|----------------|
E|-0-0-5-0-4-5-43-|

x4
G|----------------------------------|
D|----------------------------------|
A|----------------------------------|
E|-000000000000-45-4444444444444444-|

x4
G|-------------------|
D|-------------------|
A|-------------------|
E|-0-0-4-3---5-6-6---|

x4
G|----------------|
D|----------------|
A|----------------|
E|-0-0-5-0-4-5-43-|

x4
G|----------------------------------|
D|----------------------------------|
A|----------------------------------|
E|-000000000000-45-4444444444444444-|

x4
G|-------------------|
D|-------------------|
A|-------------------|
E|-0-0-4-3---5-6-6---|
Comments