Cee Lo Green - Fuck You Chords & Tabs

 

Fuck You Chords & Tabs

Cee Lo Green Chords & Tabs

Version: 3 Type: Tab

Fuck You Tab

-------------------------------------------------------------------------------
			     Fuck You - Cee Lo Green
-------------------------------------------------------------------------------
Tabbed by: Luke Jackson
Email:lukeis2cool@hotmail.com

Tuning: Standard 

NOTE BASSISTS for this to be played in the same octave as the paino intro on the 
track then the bass part would have to be put in drop C (unless you have a 5 
string). So this has been tabbed for standard for our indie-cover band (I know it 
is not indie but we like it). The other tabs I have seen relating to the BASS are 
on the E and A strings which is all well and good but it does mean you do not go 
up and down the scales in accordance with the song, you would just be playing the same notes. 
p.s. Bass solo soon to be added

Intro

  Guitar I
e|-------------------------------------------------------------------|
B|-------------------------------------------------------------------|
G|---------5--------------7-----------------------------5------------|
D|---------5--------------7--------------3--------------5------------|
A|-----0---3----------0---5----------0---3--------------3------------|
E|-3--------------3--------------3-------1------1---3----------------|



Chorus

Guitar I
e|---------------------------------------------------------------------------|
B|---------------------------------------------------------------------------|\
G|---------5-----------------7-----------------------------------5-----------| \
D|---------5-----------------7-----------------3-----------------5-----------|  \
A|-----0---3-------------0---5-------------0---3-----------------3-----------|   \
E|-3-----------------3-----------------3-------1---------1---3---------------|    \
   |                                                                       |     x2
  Bass                                                                     |      /
G|---------5-----------------------------------------------------------------|   /
D|-5---7-------------5---7---0---------0---2---3---------3---5---------------|  /
A|---------------------------------------------------------------3-----------| /
E|---------------------------------------------------------------------------|


[ Tab from: http://www.guitartabs.cc/tabs/c/cee_lo_green/fuck_you_tab_ver_3.html ]
Guitar I
e|---------------------------------------------------------------------------|
B|---------------------------------------------------------------------------|\
G|---------5-----------------7-----------------------------------5-----------| \
D|---------5-----------------7-----------------3-----------------5-----------|  \
A|-----0---3-------------0---5-------------0---3-----------------3-----------|   \
E|-3-----------------3-----------------3-------1---------1---3---------------|   |  
   |                                                                       |     |   
  Guitar II                                                                |     |
e|---------------------------------------------------------------------------|   |
B|---------------------------------------------------------------------------|   |
G|---------5-----------------7-----------------------------------5-----------|   x2
D|---------5-----------------7-----------------3-----------------5-----------|   |
A|---------3-----------------5-----------------3-----------------3-----------|   |
E|---------------------------------------------1-----------------------------|   |
   |                                                                       |     |
Bass                                                                       |     /
G|---------5-----------------------------------------------------------------|  /
D|-5---7-------------5---7---0---------0---2---3---------3---5---------------| /
A|---------------------------------------------------------------3-----------|/
E|---------------------------------------------------------------------------|


Verse 

Guitar I
e|-----------12-12-12----------10-10-10----------8--8--8-----------8-8-8-----|
B|-----------13-13-13----------10-10-10----------8--8--8-----------8-8-8-----|\
G|-----------12-12-12----------11-11-11----------10-10-10----------9-9-9-----| \
D|---------------------------------------------------------------------------|  \
A|---------------------------------------------------------------------------|   \
E|---------------------------------------------------------------------------|    \ 
   |                                                                      |      x4 
  Bass                                                                    |       /
G|---------5-----------------------------------------------------------------|   /
D|-5---7-------------5---7---0---------0---2---3---------3---5---------------|  /
A|---------------------------------------------------------------3-----------| /
E|---------------------------------------------------------------------------|



Song Order:

Intro
Chorus
Verse
Chorus
Verse
Chorus
Bridge
Chorus